Bubblehead                                           |     Key
                                                     |-----------------
                                                     |p= pull off
Standard Tuning                                      |x= muffle
                                                     |/= slide up
Chords used:                                         |\= slide down
                                                     |_________________
   F#  C#  E  B  B(2)
E|------9-----7--7---------------------|
B|-11---9--9--7--7---------------------|
G|-11--10--9--8--9---------------------|
D|-11--11--9--9--9---------------------|
A|--9--11--7--9--9---------------------|
E|------9-----7--7---------------------|



INTRO:

Guitar 1 (Slight Distortion)

E|------------------x-5-5-5------------|
B|------------------x-------4-4-4\-----|
G|-------------------------------------|
D|-------------------------------------|
A|-------------------------------------|
E|--5p2-2-5p2-2-5p2--------------------|
         ^(Play six times)^


Guitar 2 (Slight Distortion)

E|-------------------------------------|
B|-------------------------------------|
G|-------------------------------------|
D|-------------------------------------|
A|--9p0-0-9p0-0-9p0-0-9p0-0-9p0-7p0----|
E|-------------------------------------|
           ^(Play four times)^


VERSE 1:

Guitar 1 (Slight Distortion)

E|------------------x-5-5-5------------|
B|------------------x-------4-4-4\-----|
G|-------------------------------------|
D|-------------------------------------|
A|-------------------------------------|
E|--5p2-2-5p2-2-5p2--------------------|
         ^(Play eight times)^

Guitar 2 (Slight Distortion)

E|-------------------------------------|
B|-------------------------------------|
G|-------------------------------------|
D|-------------------------------------|
A|--9p0-0-9p0-0-9p0-0-9p0-0-9p0-7p0----|
E|-------------------------------------|
           ^(Play eight times)^ 


CHORUS 1:

Guitar 1 (Heavy Distortion)

E|-------------------------------------|
B|-------------------------------------|
G|-------------------------------------|
D|-------------------------------------|
A|--4---4-4---4-4---4-4---4-4---4------|
E|--5p2-2-5p2-2-5p2-2-5p2-2-5p2-2------|

E|-------------------------------------|
B|-------------------------------------|
G|-------------------------------------|
D|------------------7-2----------------|
A|--4---4-4---4-4---7-2----------------|
E|--5p2-2-5p2-2-5p2-5-0----------------|
^(Play both guitar 1 parts twice, consecutively)^

Guitar 3 (Distortion)

E|-------------------------------------|
B|-------------------------------------|
G|--3------------------1---------------|
D|----2-------------------2------------|
A|-------------------------------------|
E|-------------------------------------|
    ^(Play at the end of each measure)^


VERSE 2:

Guitar 1 (Slight Distortion)

E|------------------x-5-5-5------------|
B|------------------x-------4-4-4\-----|
G|-------------------------------------|
D|-------------------------------------|
A|-------------------------------------|
E|--5p2-2-5p2-2-5p2--------------------|
         ^(Play ten times)^

Guitar 2 (Slight Distortion)

E|-------------------------------------|
B|-------------------------------------|
G|-------------------------------------|
D|-------------------------------------|
A|--9p0-0-9p0-0-9p0-0-9p0-0-9p0-7p0----|
E|-------------------------------------|
           ^(Play ten times)^ 


CHORUS 2:

Guitar 1 (Heavy Distortion)

E|-------------------------------------|
B|-------------------------------------|
G|-------------------------------------|
D|-------------------------------------|
A|--4---4-4---4-4---4-4---4-4---4------|
E|--5p2-2-5p2-2-5p2-2-5p2-2-5p2-2------|

E|-------------------------------------|
B|-------------------------------------|
G|-------------------------------------|
D|------------------7-2----------------|
A|--4---4-4---4-4---7-2----------------|
E|--5p2-2-5p2-2-5p2-5-0----------------|
^(Play both guitar 1 parts four, consecutively)^


Guitar 3 (Distortion)

E|-------------------------------------|
B|-------------------------------------|
G|--3------------------1---------------|
D|----2-------------------2------------|
A|-------------------------------------|
E|-------------------------------------|
    ^(Play at the end of each measure)^


INTERLUDE:

Guitar (Clean)

F#, C#, E, B, B(2), B
F#, C#, E, B
^(Play during first two measures of interlude)^

Guitar 2 (Distortion)

E|-------------------------------------|
B|-------------------------------------|
G|--/13-/14---------/13-/14------------|
D|--/13-/13---------/13-/13------------|
A|-------------------------------------|
E|-------------------------------------|
^(Play during last two measures of interlude)^
           ^(Play two times)^

Guitar 3 (Slight Distortion)

E|-------------------------------------|
B|-------------------------------------|
G|---------14---14---------14---14-----|
D|------------13--13----------13--13---|
A|-------------------------------------|
E|-------------------------------------|
^(Play during last two measures of interlude)^
           ^(Play two times)^


VERSE 3:

Guitar 1 (Slight Distortion)

E|------------------x-5-5-5------------|
B|------------------x-------4-4-4\-----|
G|-------------------------------------|
D|-------------------------------------|
A|-------------------------------------|
E|--5p2-2-5p2-2-5p2--------------------|
         ^(Play eight times)^

Guitar 2 (Slight Distortion)

E|-------------------------------------|
B|-------------------------------------|
G|-------------------------------------|
D|-------------------------------------|
A|--9p0-0-9p0-0-9p0-0-9p0-0-9p0-7p0----|
E|-------------------------------------|
           ^(Play eight times)^ 


CHORUS 3:

Guitar 1 (Heavy Distortion)

E|-------------------------------------|
B|-------------------------------------|
G|-------------------------------------|
D|-------------------------------------|
A|--4---4-4---4-4---4-4---4-4---4------|
E|--5p2-2-5p2-2-5p2-2-5p2-2-5p2-2------|

E|-------------------------------------|
B|-------------------------------------|
G|-------------------------------------|
D|------------------7-2----------------|
A|--4---4-4---4-4---7-2----------------|
E|--5p2-2-5p2-2-5p2-5-0----------------|
^(Play both guitar 1 parts ten times, consecutively)^ 
            ^(Fade out)^ 

Guitar 3 (Distortion)

E|-------------------------------------|
B|-------------------------------------|
G|--3------------------1---------------|
D|----2-------------------2------------|
A|-------------------------------------|
E|-------------------------------------|
  ^(Play at the end of each measure)^
           ^(Fade out)^

Guitar 4 (Distortion) 

Tremolo pick and slide on the high E string 
Slide up the string while tremolo picking and keep going up until around the middle to end of the bridge on your guitar
(While sliding up the bridge of your guitar, push the high E string down with the fingers on your strumming hand and continue tremolo picking with your other hand)

         ^(Improvise)^
          ^(Fade out)^