Feeder-Buck Rogers

E5	0799xx
B5	799xxx
C#5	9 11 11 xxx
A5	577xxx
F#5	244xxx
G#5	466xxx
C5	8 10 10 xxx
	
Intro  
  E                          G#5   A5
  +     +     +     +       +    +   +   +
D-------------------------|------------------
A-11-11-11-11-11-11-11-11-|-11-6-6-6-7-7-7-7- 
E-0--0--0--0--0--0--0--0--|-0--4-4-4-5-5-5-5-

Riff 1:
  +    +    +    +     +    +    +    +
e---------------------|----------------------
B-12---12---12---12---|11---11---10---10----
G----9----9----9----9-|---9----9----9----9--

Verse w/intro and riff 1
He's got a brand new car,
Looks like a Jaguar.
It's got leather seats,
It's got a CD player.

w/intro x2

  +   +     +       +      +     +      +  +    +   +   +   + 
G------------------------|-2------------------|-2-2-2-2-2-2-2-2--
D-9-9-9-9---9-9-----9-9--|-2------------------|-------------------
A-9-9-9-9---9-9-----9-9--|-0------------------|-------------------
E-7-7-7-7---7-7-----7-7--|--------------------|-------------------
        But I don't wanna  talk about it anymore

Chorus
              E5              B5
I think we're gonna' make it,
              C#5             A5
I think we're gonna' save it, yeah.
             E5               B5
So don't you try and fake it,
   A5
Anymore, anymore.

  E                            G#5   A5
  +     +     +     +       +    +   +   +
e-------------------------|------------------
B-------------------------|----4-----5-------
G-------------------------|----6b----7b------
D-------------------------|------------------
A-11-11-11-11-11-11-11-11-|-11--------------- 
E-0--0--0--0--0--0--0--0--|-0----------------    x2

Verse
We'll start over again,
Grow ourselves new skin.
We'll buy a house in Devon,
Drink cider from lemon.

Pre-chorus

Chorus x2

Bridge
F#5   G#5 A5         C5 
          He's got a brand new car
F#5   G#5 A5
          He's got a brand new car. 

Gtr 1
   +     +   +   +     +   +   +   +      +     +   +   +     +   +   +   +
D--------------------|-----------------|--------------------|------------------
A-11-11-11-9-9-9-9-9-|-6-6-6-4-4-4-4-4-|-11-11-11-9-9-9-9-9-|-6-6-6-7-7-7-7-7--
E--0--0--0-0-0-0-0-0-|-0-0-0-0-0-0-0-0-|--0--0--0-0-0-0-0-0-|-0-0-0-0-0-0-0-0-- 

Gtr 2
B--9--9--9-7-7-7-7-7-|-----------------|--9--9--9-7-7-7-7-7-|------------------
G--------------------|-8-8-8-6-6-6-6-6-|--------------------|-8-8-8-9-9-9-9-9--
				     A brand new car                        A brand new car

Gtr 1
   +     +   +   +     +   +   +   +      +     +   +   +     +   +   +   +
D--------------------|-----------------|--------------------|------------------
A-11-11-11-9-9-9-9-9-|-6-6-6-4-4-4-4-4-|-11-11-11-9-9-9-9-9-|-6-6-6-6-6-6-6-6--
E--0--0--0-0-0-0-0-0-|-0-0-0-0-0-0-0-0-|--0--0--0-0-0-0-0-0-|-0-0-0-0-0-0-0-0--

Gtr 2
B--9--9--9-7-7-7-7-7-|-----------------|--9--9--9-7-7-7-7-7-|------------------
G--------------------|-8-8-8-6-6-6-6-6-|--------------------|-8-8-8-8-8-8-8-8--
                             A brand new car 


  E                          G#5   A5
  +     +     +     +       +    +   +   +
D-------------------------|------------------
A-11-11-11-11-11-11-11-11-|-11-6-6-6-7-7-7-7- 
E-0--0--0--0--0--0--0--0--|-0--4-4-4-5-5-5-5-   x2

Chorus x2

  E                            G#5   A5
  +     +     +     +       +    +   +   +
e-------------------------|------------------
B-------------------------|----4-----5-------
G-------------------------|----6b----7b------
D-------------------------|------------------
A-11-11-11-11-11-11-11-11-|-11--------------- 
E-0--0--0--0--0--0--0--0--|-0----------------

http://www.sparkystabs.co.uk