Day in Day Out                                    |      Key
                                                  |--------------------
Tuning from high to low-E# B# G# D# A# E#         |/= slide up
                                                  |\= slide down
INTRO:                                            |h= hammer on
                                                  |p= pull off
Guitar (Distortion)                               |v= vibrato
                                                  |____________________
E#|-------------------------------------|
B#|-------------------------------------|
G#|------------/7-7---------------------|
D#|--7--2--5--5/7-7---------------------|
A#|--7--2--5--5/5-5---------------------|
E#|--5--0--3--3/------------------------|
             ^(Play two times)^

VERSE 1:

Guitar 1 (Clean)

E#|-------------------------------------|
B#|-------------------------------------|
G#|------0-------0-----------------7----|
D#|----------------------5-------7------|
A#|----7-------2-------5-----3/5-----5--|
E#|--5-----5-0-----0-3-----3------------|
             ^(Play six times)^

Guitar 2 (Overdrive)

E#|-------------------------------------|
B#|-------------------------------------|
G#|------0-------0-----------------7----|
D#|----------------------5-------7------|
A#|----7-------2-------5-----3/5-----5--|
E#|--5-----5-0-----0-3-----3------------|
      ^(Play during last two measures)^

Guitar 3 (Distortion)

E#|-------------------------------------|
B#|-------------------------------------|
G#|----------------------/7-7-----------|
D#|------------------5--5/7-7-----------|
A#|------------------5--5/5-5-----------|
E#|------------------3--3/--------------|
    ^(Play at the end of last measure)^


CHORUS 1:

Guitar 1 (Distortion)

E#|-------------------------------------|
B#|-------------------------------------|
G#|------------/7-7---------------------|
D#|--7--2--5--5/7-7---------------------|
A#|--7--2--5--5/5-5---------------------|
E#|--5--0--3--3/------------------------|
             ^(Play four times)^

Guitar 2 (Distortion)

E#|--5-5-5-5-4-4-4-4-7-7-7-7-5-5-5-4-5--|
B#|--5-5-5-5-5-5-5-5-5-5-5-5-5-5-5-5-5--|
G#|-------------------------------------|
D#|-------------------------------------|
A#|-------------------------------------|
E#|-------------------------------------|
            ^(Play four times)^

Guitar 3 (Distortion)

E#|-------------------------------------|
B#|-------------------------------------|
G#|------------2h3p2h3p2v---------------|
D#|-------------------------------------|
A#|-------------------------------------|
E#|-------------------------------------|
 ^(Play at end of second and fourth measures)^


VERSE 2:

Guitar 1 (Clean)

E#|-------------------------------------|
B#|-------------------------------------|
G#|------0-------0-----------------7----|
D#|----------------------5-------7------|
A#|----7-------2-------5-----3/5-----5--|
E#|--5-----5-0-----0-3-----3------------|
             ^(Play six times)^

Guitar 2 (Overdrive)

E#|-------------------------------------|
B#|-------------------------------------|
G#|------0-------0-----------------7----|
D#|----------------------5-------7------|
A#|----7-------2-------5-----3/5-----5--|
E#|--5-----5-0-----0-3-----3------------|
      ^(Play during last two measures)^

Guitar 3 (Distortion)

E#|-------------------------------------|
B#|-------------------------------------|
G#|----------------------/7-7-----------|
D#|------------------5--5/7-7-----------|
A#|------------------5--5/5-5-----------|
E#|------------------3--3/--------------|
    ^(Play at the end of last measure)^


CHORUS 2:

Guitar 1 (Distortion)

E#|-------------------------------------|
B#|-------------------------------------|
G#|------------/7-7---------------------|
D#|--7--2--5--5/7-7---------------------|
A#|--7--2--5--5/5-5---------------------|
E#|--5--0--3--3/------------------------|
             ^(Play four times)^

Guitar 2 (Distortion)

E#|--5-5-5-5-4-4-4-4-7-7-7-7-5-5-5-4-5--|
B#|--5-5-5-5-5-5-5-5-5-5-5-5-5-5-5-5-5--|
G#|-------------------------------------|
D#|-------------------------------------|
A#|-------------------------------------|
E#|-------------------------------------|
            ^(Play four times)^

Guitar 3 (Distortion)

E#|-------------------------------------|
B#|-------------------------------------|
G#|------------2h3p2h3p2v---------------|
D#|-------------------------------------|
A#|-------------------------------------|
E#|-------------------------------------|
 ^(Play at end of second and fourth measures)^


BRIDGE:

Guitar 1 (Heavy Distortion)

E#|--5-5-5-5-5-4-4-4-7-7-7-7-5-5-5-4-5--|
B#|--5-5-5-5-5-5-5-5-5-5-5-5-5-5-5-5-5--|
G#|-------------------------------------|
D#|-------------------------------------|
A#|-------------------------------------|
E#|-------------------------------------|
^(Play two times during 1st and 2nd measures)^

Guitar 2 (Clean, Delay)

E#|--12-------14-------17-------16----------|
B#|-----12-12----12-12----12-12----12-12----|
G#|-----------------------------------------|
D#|-----------------------------------------|
A#|-----------------------------------------|
E#|-----------------------------------------|

E#|--12-------14-------16-------10-10-10-10-|
B#|-----12-12----12-12----12-12-12-12-12-12-|
G#|-----------------------------------------|
D#|-----------------------------------------|
A#|-----------------------------------------|
E#|-----------------------------------------|
^(Play both guitar 2 parts during 2nd and 3rd measures)^


VERSE 3:

Guitar 1 (Auto-Wah, Delay, and slight vibrato)

E#|-------------------------------------|
B#|--10--9-12--10-----------------------|
G#|-------------------------------------|
D#|-------------------------------------|
A#|-------------------------------------|
E#|-------------------------------------|
    ^(Play during first three measures)^

Guitar 2 (Clean)

E#|-------------------------------------|
B#|-------------------------------------|
G#|------0-------0-----------------7----|
D#|----------------------5-------7------|
A#|----7-------2-------5-----3/5-----5--|
E#|--5-----5-0-----0-3-----3------------|
             ^(Play six times)^

Guitar 3 (Overdrive)

E#|-------------------------------------|
B#|-------------------------------------|
G#|------0-------0-----------------7----|
D#|----------------------5-------7------|
A#|----7-------2-------5-----3/5-----5--|
E#|--5-----5-0-----0-3-----3------------|
     ^(Play during last two measures)^


PRE-CHORUS 1:

Guitar 1 (Distortion)

E#|-------------------------------------|
B#|-------------------------------------|
G#|------------/7-7---------------------|
D#|--7--2--5--5/7-7---------------------|
A#|--7--2--5--5/5-5---------------------|
E#|--5--0--3--3/------------------------|
             ^(Play four times)^

Guitar 2 (Distortion, Auto-Wah, Delay, and slight vibrato)

E#|-------------------------------------|
B#|--10---------------------------------|
G#|-------------------------------------|
D#|-------------------------------------|
A#|-------------------------------------|
E#|-------------------------------------|
^(Play at the end of 2nd measure and hold until chorus 3 starts)^


CHORUS 3:

Guitar 1 (Distortion)

E#|-------------------------------------|
B#|-------------------------------------|
G#|------------/7-7---------------------|
D#|--7--2--5--5/7-7---------------------|
A#|--7--2--5--5/5-5---------------------|
E#|--5--0--3--3/------------------------|
             ^(Play four times)^

Guitar 2 (Distortion)

E#|--5-5-5-5-4-4-4-4-7-7-7-7-5-5-5-4-5--|
B#|--5-5-5-5-5-5-5-5-5-5-5-5-5-5-5-5-5--|
G#|-------------------------------------|
D#|-------------------------------------|
A#|-------------------------------------|
E#|-------------------------------------|
            ^(Play four times)^

Guitar 3 (Distortion)

E#|-------------------------------------|
B#|-------------------------------------|
G#|------------2h3p2h3p2v---------------|
D#|-------------------------------------|
A#|-------------------------------------|
E#|-------------------------------------|
 ^(Play at end of second and fourth measures)^


CHORUS 4:

Guitar 1 (Distortion)

E#|-------------------------------------|
B#|-------------------------------------|
G#|------------/7-7---------------------|
D#|--7--2--5--5/7-7---------------------|
A#|--7--2--5--5/5-5---------------------|
E#|--5--0--3--3/------------------------|
             ^(Play four times)^

Guitar 2 (Distortion)

E#|--5-5-5-5-4-4-4-4-7-7-7-7-5-5-5-4-5--|
B#|--5-5-5-5-5-5-5-5-5-5-5-5-5-5-5-5-5--|
G#|-------------------------------------|
D#|-------------------------------------|
A#|-------------------------------------|
E#|-------------------------------------|
            ^(Play four times)^

Guitar 3 (Distortion)

E#|-------------------------------------|
B#|-------------------------------------|
G#|------------2h3p2h3p2v---------------|
D#|-------------------------------------|
A#|-------------------------------------|
E#|-------------------------------------|
 ^(Play at end of second and fourth measures)^


OUTRO:

Guitar 1 (Distortion)

E#|-------------------------------------|
B#|-------------------------------------|
G#|-------------------------------------|
D#|--7--2\------------------------------|
A#|--7--2\------------------------------|
E#|--5--0-------------------------------|

Guitar 2 (Distortion)

E#|--5-5-5-5-4-4\-----------------------|
B#|--5-5-5-5-5-5\-----------------------|
G#|-------------------------------------|
D#|-------------------------------------|
A#|-------------------------------------|
E#|-------------------------------------|