Dry                                                      |    Key
                                                         |-------------
Standard Tuning                                          |/= slide up                                                           |_____________ 
Chords used:                                                                                 

    C  G  F  F(2) A5# F5 C5 G
E|--3--3--1--1--------------------------|
B|--1--3--1--1--------------------------|
G|--0--0--2--0----3------5--------------|
D|--2--0--3--3----3---3--5--5-----------|
A|--3--2--3--3----1---3--3--5-----------|
E|-----3--------------1-----3-----------|



VERSE 1:

Guitar 1 (Acoustic)

Strum 
C, G, F, pF(2) (pull off of the 2nd fret on the G string)
^(Play six times)^

Guitar 2 (Clean, Flanger)

Strum 
C, G, F, F(2)
^(Play five times, start at end of first measure)^



CHORUS 1:

Guitar 1 (Slight Distortion, Flanger)

A5#, F5, C5
A5#, F5, C5, G5 
A5#, F5, C5
A5#, F5, C5

Guitar 2 (Acoustic)

Strum 
A5#, F, C
A5#, F, C, G
A5#, F, C 
A5#, F, C



VERSE 2:

Guitar 1 (Acoustic)

Strum 
C, G, F, F(2)
^(Play four times)^

Guitar 2 (Clean, Flanger)

Strum and pic
C, G, F, F(2)
^(Play three times, start at end of first measure)^



CHORUS 2:

Guitar 1 (Slight Distortion, Flanger)

A5#, F5, C5
A5#, F5, C5, G5 
A5#, F5, C5 
A5#, F5, C5
A5#, F5, C5
A5#, F5, C5

Guitar 2 (Acoustic)

Strum 
A5#, F, C
A5#, F, C, G
A5#, F, C 
A5#, F, C
A5#, F, C
A5#, F, C


BRIDGE:

Guitar 1 (Acoustic)

E|--------------------------------------|
B|--------------------------------------|
G|------8-------7-------6-------5-------|
D|----8-------8-------6-------5---------|
A|--6-----6-5-----5-4-----4-3-----3-3/6-|
E|--------------------------------------|

Guitar 2 (Distortion)

Start tremolo picking on the 13th fret of the high E string 
Slowly slide up the string while tremolo picking and keep going up until around the middle to end of the bridge on your guitar
(While sliding up the bridge of your guitar, push the high E string down with the fingers on your strumming hand and continue tremolo picking with your other hand)


CHORUS 3:

Guitar 1 (Slight Distortion, Flanger)

A5#, F5, C5
A5#, F5, C5, G5
A5#, F5, C5 
A5#, F5, C5
A5#, F5, C5
A5#, F5, C5
A5#, F5, C5
A5#, F5, C5

Guitar 2 (Acoustic)

Strum
A5#, F, C
A5#, F, C, G
A5#, F, C 
A5#, F, C
A5#, F, C
A5#, F, C
A5#, F, C 
A5#, F, C
A5#, F, C
A5#, F, C