Hole In My Head                                        |     Key
                                                       |---------------
Standard Tuning                                        |/= slide up
                                                       |h= hammer on
Chords used:                                           |p= pull off
    D#  D#sus  A#  G  G#  F  C                         |_______________
E|-------------6---3--4---1----------|
B|--8---9------6---3--4---1--5-------|
G|--8---8------7---4--5---2--5-------|
D|--8---8------8---5--6---3--5-------|
A|--6---6------8---5--6---3--3-------|
E|-------------6---3--4---1----------|


INTRO into VERSE 1:

Guitar (Distortion)

D#, D#sus, A#, G, G#
D#, D#sus, A#, G, G#, G#/A#
D#, D#sus, A#, G, G#


PRE-CHORUS 1:

Guitar (Distortion)

F, F/G#, G#, G#/A#, A#
F, F/G#, G#


CHORUS 1:

Guitar (Distortion)

D#, A#, C, G#
D#, A#, C, G#
D#, A#, C, G#
D#, A#, C, G#


VERSE 2:

Guitar (Distortion)

D#, D#sus, A#, G, G#, G#/A#
D#, D#sus, A#, G, G#, G#/A#
D#, D#sus, A#, G, G#


PRE-CHORUS 2:

Guitar (Distortion)

F, F/G#, G#, G#/A#, A#
F, F/G#, G#


CHORUS 2:

Guitar (Distortion)

D#, A#, C, G#
D#, A#, C, G#
D#, A#, C, G#
D#, A#, C, G#
D#, A#, C, G#
D#, A#, C, G#


BRIDGE:

Guitar 1 (Distortion)

E|----------------------------------------------|
B|----------------------------------------------|
G|----------5-5-3-3-3h5p3p0---------1-1-1-1-1p3-|
D|--5-5-5-3-----------------5-5-5-3-------------|
A|----------------------------------------------|
E|----------------------------------------------|

E|---------------------------------------------------|
B|---------------------------------------------------|
G|----------5-5-3-3-3h5p3p0---------1-1-1-1-1-3(hold)|
D|--5-5-5-3-----------------5-5-5-3------------------|
A|---------------------------------------------------|
E|---------------------------------------------------|
     ^(Play during first two measures of bridge)^

Guitar 2 (Distortion)

E|-------------------------------|
B|------7-----7------------------|
G|----6-----6--------------------|
D|--4-----6----------------------|
A|-------------------------------|
E|-------------------------------|
^(Play four times during last two measures of bridge)^


VERSE 3:

Guitar (Distortion)

D#, D#sus, A#, G, G#, G#/A#
D#, D#sus, A#, G, G#



INTERLUDE:

Guitar (Clean)

D#, A#, C, G#
D#, A#, C, G#
D#, A#, C, G#
D#, A#, C, G#



CHORUS 3:

Guitar (Distortion)

D#, A#, C, G#
D#, A#, C, G#
D#, A#, C, G#
D#, A#, C, G#
D#, A#, C, G#
D#, A#, C, G#       
D#, A#, C, G#
D#, A#, C, G#
D#