Insomnia                                               |     Key
                                                       |---------------
Dropped D Tuning                                       |/= slide up
                                                       |\= slide down
INTRO:                                                 |pm = palm mute
                                                       |_______________
Guitar (Crunch)

E|-------------------------------------------------------|
B|-------------------------------------------------------|
G|----------3--------------------------------------------|
D|--3---0---3--------------------------------------------|
A|--3---0---1--------------------------------------------|
D|--3---0------------------------------------------------|

Guitar (Distortion and Crunch)

E|-------------------------------------------------------|
B|-------------------------------------------------------|
G|----------3--------------------------------------------|
D|--3---0---3--------------------------------------------|
A|--3---0---1--------------------------------------------|
D|--3---0------------------------------------------------|
                  ^(Play two times)^

VERSE 1:

Guitar 1 (Crunch)

E|-------------------------------------------------------|
B|-------------------------------------------------------|
G|----------3--------------------------------------------|
D|--3---0---3--------------------------------------------|
A|--3---0---1--------------------------------------------|
D|--3---0------------------------------------------------|
                  ^(Play four times)^

Guitar 2 (Slight Distortion)

E|--5-------6--------------------------------------------|
B|----6-------6------------------------------------------|
G|-------------------------------------------------------|
D|-------------------------------------------------------|
A|-------------------------------------------------------|
D|-------------------------------------------------------|
                  ^(Play four times)^

Guitar 3 (Slight Distortion)

E|-------------------------------------------------------|
B|--6----------------------------------------------------|
G|-------------------------------------------------------|
D|--3----------------------------------------------------|
A|-------------------------------------------------------|
D|-------------------------------------------------------|
  ^(Play repeatedly during last two measures of verse 1)^


PRE-CHORUS 1:

Guitar 1 (Distortion and Crunch)

E|-------------------------------------------------------|
B|-------------------------------------------------------|
G|-------------------------------------------------------|
D|-----8-------------------------------------------------|
A|--8--8-------------------------------------------------|
D|--7--8-------------------------------------------------|
                ^(Play four times)^

Guitar 2 (Distortion)

E|-------------------------------------------------------|
B|-------------------------------------------------------|
G|----------12--12--12--12/14--10------------------------|
D|-------------------------------------------------------|
A|----------10--10--10--10/12---8------------------------|
D|-------------------------------------------------------|

E|-------------------------------------------------------|
B|-------------------------------------------------------|
G|----------12--12--12--12\10(hold)----------------------|
D|-------------------------------------------------------|
A|----------10--10--10--10\-8(hold)----------------------|
D|-------------------------------------------------------|
     ^(Play both guitar 2 parts twice, consecutively)^

CHORUS 1:

Guitar 1 (Distortion and Crunch)

E|-------------------------------------------------------|
B|-------------------------------------------------------|
G|--5-5--7-7--3-3---------5-5--7-7--3-3-3/10-10-10-------|
D|--5-5--7-7--3-3--3-3-3--5-5--7-7--3-3-3/10-10-10-------|
A|--3-3--5-5--1-1--3-3-3--3-3--5-5--1-1-1/-8--8--8-------|
D|-----------------3-3-3---------------------------------|
                  ^(Play two times)^

Guitar 2 (Distortion)

E|-------------------------------------------------------|
B|-10(hold)----------------------------------------------|
G|-------------------------------------------------------|
D|--8(hold)----------------------------------------------|
A|-------------------------------------------------------|
D|-------------------------------------------------------|
    ^(Play at beginning of second measure in chorus 1)^


PRE-VERSE 1:

Guitar (Distortion and Crunch)

E|-------------------------------------------------------|
B|-------------------------------------------------------|
G|----------3--------------------------------------------|
D|--3---0---3--------------------------------------------|
A|--3---0---1--------------------------------------------|
D|--3---0------------------------------------------------|
                  ^(Play two times)^


VERSE 2:

Guitar 1 (Crunch)

E|-------------------------------------------------------|
B|-------------------------------------------------------|
G|----------3--------------------------------------------|
D|--3---0---3--------------------------------------------|
A|--3---0---1--------------------------------------------|
D|--3---0------------------------------------------------|
                  ^(Play four times)^

Guitar 2 (Slight Distortion)

E|--5-------6--------------------------------------------|
B|----6-------6------------------------------------------|
G|-------------------------------------------------------|
D|-------------------------------------------------------|
A|-------------------------------------------------------|
D|-------------------------------------------------------|
                  ^(Play four times)^

Guitar 3 (Slight Distortion)

E|-------------------------------------------------------|
B|--6----------------------------------------------------|
G|-------------------------------------------------------|
D|--3----------------------------------------------------|
A|-------------------------------------------------------|
D|-------------------------------------------------------|
  ^(Play repeatedly during last two measures of verse 1)^


PRE-CHORUS 2:

Guitar 1 (Distortion and Crunch)

E|-------------------------------------------------------|
B|-------------------------------------------------------|
G|-------------------------------------------------------|
D|-----8-------------------------------------------------|
A|--8--8-------------------------------------------------|
D|--7--8-------------------------------------------------|
                ^(Play four times)^

Guitar 2 (Distortion)

E|-------------------------------------------------------|
B|-------------------------------------------------------|
G|----------12--12--12--12/14--10------------------------|
D|-------------------------------------------------------|
A|----------10--10--10--10/12---8------------------------|
D|-------------------------------------------------------|

E|-------------------------------------------------------|
B|-------------------------------------------------------|
G|----------12--12--12--12\10(hold)----------------------|
D|-------------------------------------------------------|
A|----------10--10--10--10\-8(hold)----------------------|
D|-------------------------------------------------------|
     ^(Play both guitar 2 parts twice, consecutively)^


CHORUS 2:

Guitar 1 (Distortion and Crunch)

E|-------------------------------------------------------|
B|-------------------------------------------------------|
G|--5-5--7-7--3-3---------5-5--7-7--3-3-3/10-10-10-------|
D|--5-5--7-7--3-3--3-3-3--5-5--7-7--3-3-3/10-10-10-------|
A|--3-3--5-5--1-1--3-3-3--3-3--5-5--1-1-1/-8--8--8-------|
D|-----------------3-3-3---------------------------------|
                  ^(Play three times)^

E|-------------------------------------------------------|
B|-------------------------------------------------------|
G|--5-5--7-7--3-3---------5-5--7-7-----------------------|
D|--5-5--7-7--3-3--3-3-3--5-5--7-7-----------------------|
A|--3-3--5-5--1-1--3-3-3--3-3--5-5-----------------------|
D|-----------------3-3-3---------------------------------|

Guitar 2 (Distortion)

E|-------------------------------------------------------|
B|-10(hold)----------------------------------------------|
G|-------------------------------------------------------|
D|--8(hold)----------------------------------------------|
A|-------------------------------------------------------|
D|-------------------------------------------------------|
^(Play at beginning of second and third measures in chorus 2)^

E|-------------------------------------------------------|
B|-12-10(hold)-------------------------------------------|
G|-------------------------------------------------------|
D|--8--8(hold)-------------------------------------------|
A|-------------------------------------------------------|
D|-------------------------------------------------------|
  ^(Play at beginning of the fourth measure in chorus 2)^


BRIDGE:

Guitar 1 (Distortion)

E|-------------------------------------------------------|
B|-------------------------------------------------------|
G|--3pm--------------------------------------------------|
D|--3pm--------------------------------------------------|
A|--1pm--------------------------------------------------|
D|-------------------------------------------------------|

Guitar 2 (Distortion, Flanger, and Crunch)

E|-------------------------------------------------------|
B|-------------------------------------------------------|
G|-----------------------------3-------------------------|
D|---------------------3---0---3-------------------------|
A|---------------------3---0---1-------------------------|
D|---------------------3---0-----------------------------|
                  ^(Play three times)^

Guitar 3 (Slight Distortion)

E|---------------------5-------6-------------------------|
B|-----------------------6-------6-----------------------|
G|-------------------------------------------------------|
D|-------------------------------------------------------|
A|-------------------------------------------------------|
D|-------------------------------------------------------|
                  ^(Play three times)^


PRE-CHORUS 3:

Guitar 1 (Slight Distortion and Crunch)

E|-------------------------------------------------------|
B|-------------------------------------------------------|
G|---------------12--12--12--12/14--10-------------------|
D|-----8------8------------------------------------------|
A|--8--8---8--8--10--10--10--10/12---8-------------------|
D|--7--8---7--8------------------------------------------|

E|-------------------------------------------------------|
B|-------------------------------------------------------|
G|-------------------------------------------------------|
D|-----8-------------------------------------------------|
A|--8--8-------------------------------------------------|
D|--7--8-------------------------------------------------|
                  ^(Play two times)^
               
Guitar 2 (Distortion)

E|-------------------------------------------------------|
B|-------------------------------------------------------|
G|--------12--12--12--12\10------------------------------|
D|-------------------------------------------------------|
A|--------10--10--10--10\-8------------------------------|
D|-------------------------------------------------------|
    
E|-------------------------------------------------------|
B|-------------------------------------------------------|
G|--------12--12--12--12/14--10(hold)--------------------|
D|-------------------------------------------------------|
A|--------10--10--10--10/12---8(hold)--------------------|
D|-------------------------------------------------------|
       ^(Play guitar 2 parts consecutively)^


CHORUS 3:

Guitar 1 (Distortion and Crunch)

E|-------------------------------------------------------|
B|-------------------------------------------------------|
G|--5-5--7-7--3-3---------5-5--7-7--3-3-3/10-10-10-------|
D|--5-5--7-7--3-3--3-3-3--5-5--7-7--3-3-3/10-10-10-------|
A|--3-3--5-5--1-1--3-3-3--3-3--5-5--1-1-1/-8--8--8-------|
D|-----------------3-3-3---------------------------------|
                  ^(Play six times)^

Guitar 2 (Distortion)

E|-------------------------------------------------------|
B|-10(hold)----------------------------------------------|
G|-------------------------------------------------------|
D|--8(hold)----------------------------------------------|
A|-------------------------------------------------------|
D|-------------------------------------------------------|
^(Play at beginning of 2nd, 3rd, and 4th measures in chorus 3)^

E|-13-13-12-13-13-12-13-13-15-13(\ at end)---------------|
B|-------------------------------------------------------|
G|-10-10-10-10-10-10-10-10-10-10(\ at end)---------------|
D|-------------------------------------------------------|
A|-------------------------------------------------------|
D|-------------------------------------------------------|
  ^(Play at beginning of the fifth measure in chorus 3)^
               ^(Play four times)^