Paperfaces                                             |     Key
                                                       |---------------
Standard Tuning                                        |/= slide up
                                                       |\= slide down
INTRO:                                                 |v= vibrato     
                                                       |_______________
Guitar 1 (Clean, Tremolo, Delay)

E|-------------------------------------|
B|-------------------------------------|
G|--6v/8v------------------------------|
D|-------------------------------------|
A|-------------------------------------|
E|-------------------------------------|


VERSE 1:

Guitar 1 (Acoustic)

E|-------------------------------------|
B|--8--6--8--8-------------------------|
G|--8--7--8-10-------------------------|
D|--8--8--8--8-------------------------|
A|--6--5--6--8-------------------------|
E|-------------------------------------|

E|-----------8----8-3------------------|
B|--8---6----9----8-4------------------|
G|--8---7---10---10-5------------------|
D|--8---8---10---10-5------------------|
A|--6---5----8----8-3------------------|
E|-------------------------------------|
        ^(Play two times)^

Guitar 2 (Clean, Chorus)

E|--11---------------------------------|
B|----11-------------------------------|
G|-------------------------------------|
D|-------------------------------------|
A|-------------------------------------|
E|-------------------------------------|
      ^(Repaeat for 1st measure)^

E|--11--11--11--11--10--10--10--10-----|
B|----11--11--11--11--11--11--11--11---|
G|-------------------------------------|
D|-------------------------------------|
A|-------------------------------------|
E|-------------------------------------|

E|--11/13--13--13--13-----10--10--10--10---|
B|-------13--13--13--13\11--11--11--11--11-|
G|-----------------------------------------|
D|-----------------------------------------|
A|-----------------------------------------|
E|-----------------------------------------|
^(Play both guitar parts twice, consecutively)^


CHORUS 1:

Guitar 1 (Acoustic)

E|-----3--3-3-3--3/6-6-----------------|
B|--8--4--3-4-3--3/6-6-----------------|
G|--8--5--5-5-3--3/7-7-----------------|
D|--8--5--5-5-5--5/8-8-----------------|
A|--6--3--3-3-5--5/8-8-----------------|
E|------------3--3/6-6-----------------|
         ^(Play two times)^

Guitar 2 (Clean, Chorus)

E|--11-----------10--------------------|
B|----11-----------11------------------|
G|-------------------------------------|
D|-------------------------------------|
A|-------------------------------------|
E|-------------------------------------|
          ^(Repeat)^


VERSE 2:

Guitar 1 (Acoustic)

E|-----------8----8-3------------------|
B|--8---6----9----8-4------------------|
G|--8---7---10---10-5------------------|
D|--8---8---10---10-5------------------|
A|--6---5----8----8-3------------------|
E|-------------------------------------|
        ^(Play two times)^

Guitar 2 (Clean, Chorus)

E|--11--11--11--11--10--10--10--10-----|
B|----11--11--11--11--11--11--11--11---|
G|-------------------------------------|
D|-------------------------------------|
A|-------------------------------------|
E|-------------------------------------|

E|--11/13--13--13--13-----10--10--10--10---|
B|-------13--13--13--13\11--11--11--11--11-|
G|-----------------------------------------|
D|-----------------------------------------|
A|----------------