Picture of Perfect Youth                               |     Key
                                                       |---------------
Standard Tuning                                        |/= slide up
                                                       |\= slide down
                                                       |h= hammer on
INTRO:                                                 |p= pull off
                                                       |v= vibrato
Guitar 1 (Clean)                                       |_______________
                                                       
E|----1---1---1---1-------1---1--------------------------|
B|--2---2---2---2---2-2-2---2----------------------------|
G|-------------------------------------------------------|
D|-------------------------------------------------------|
A|-------------------------------------------------------|
E|-------------------------------------------------------|
                  ^(Repeat)^
                 

Guitar 2 (Clean)

E|-------------------------------------------------------|
B|------2-------2-----------2----------------------------|
G|-------------------------------------------------------|
D|-------------------------------------------------------|
A|-------------------------------------------------------|
E|-------------------------------------------------------|
                  ^(Repeat)^


VERSE 1:

Guitar 1 (Slight Distortion)

E|-------------------------------------------------------|
B|-------------------------------------------------------|
G|--8/10--10-10\8--8--8/10--10-10\8--8-------------------|
D|-------------------------------------------------------|
A|--9/11--11-11\9--9--9/11--11-11\9--9-------------------|
E|--7/-9---9--9\7--7--7/-9---9--9\7--7-------------------|
                  ^(Play eight times)^
                 

Guitar 2 (Slight Distortion)

E|-------------------------------------------------------|
B|-------------------------------------------------------|
G|--6p4h6p4h6p4h6p4h6p4h6p4h6p4-8p4----------------------|
D|-------------------------------------------------------|
A|-------------------------------------------------------|
E|-------------------------------------------------------|
                   ^(Play eight times)^



PRE-CHORUS 1:

Guitar 1 (Distortion)

E|-------------------------------------------------------|
B|-------------------------------------------------------|
G|-------------------------------------------------------|
D|--9--9/11--11-11\9--9--9/12--12-12\9-------------------|
A|--9--9/11--11-11\9--9--9/12--12-12\9-------------------|
E|--7--7/-9---9--9\7--7--7/10--10-10\7-------------------|
                  ^(Play two times)^


CHORUS 1:

Guitar 1 (Distortion)

E|-------------------------------------------------------|
B|-------------------------------------------------------|
G|--6-------7--------------------------------------------|
D|--7-------7--------------------------------------------|
A|--7-------5--------------------------------------------|
E|--5----------------------------------------------------|
                  ^(Play four times)^

Guitar 2 (Slight Distortion and Auto-Wah)

E|--9v------10v------12v---------------------------------|
B|-------------------------------------------------------|
G|-------------------------------------------------------|
D|-------------------------------------------------------|
A|-------------------------------------------------------|
E|-------------------------------------------------------|
                  ^(Play four times)^


VERSE 2:

Guitar 1 (Slight Distortion)

E|-------------------------------------------------------|
B|-------------------------------------------------------|
G|--8/10--10-10\8--8--8/10--10-10\8--8-------------------|
D|-------------------------------------------------------|
A|--9/11--11-11\9--9--9/11--11-11\9--9-------------------|
E|--7/-9---9--9\7--7--7/-9---9--9\7--7-------------------|
                  ^(Play eight times)^
                 

Guitar 2 (Slight Distortion)

E|-------------------------------------------------------|
B|-------------------------------------------------------|
G|--6p4h6p4h6p4h6p4h6p4h6p4h6p4-8p4----------------------|
D|-------------------------------------------------------|
A|-------------------------------------------------------|
E|-------------------------------------------------------|
                   ^(Play eight times)^


PRE-CHORUS 2:

Guitar 1 (Distortion)

E|-------------------------------------------------------|
B|-------------------------------------------------------|
G|-------------------------------------------------------|
D|--9--9/11--11-11\9--9--9/12--12-12\9-------------------|
A|--9--9/11--11-11\9--9--9/12--12-12\9-------------------|
E|--7--7/-9---9--9\7--7--7/10--10-10\7-------------------|
                  ^(Play two times)^


CHORUS 2:

Guitar 1 (Distortion)

E|-------------------------------------------------------|
B|-------------------------------------------------------|
G|--6-------7--------------------------------------------|
D|--7-------7--------------------------------------------|
A|--7-------5--------------------------------------------|
E|--5----------------------------------------------------|
                  ^(Play four times)^

Guitar 2 (Slight Distortion and Auto-Wah)

E|--9v------10v------12v---------------------------------|
B|-------------------------------------------------------|
G|-------------------------------------------------------|
D|-------------------------------------------------------|
A|-------------------------------------------------------|
E|-------------------------------------------------------|
                  ^(Play four times)^


BRIDGE:

Guitar 1 (Clean)

E|---------------------------------0----0-------0----0---|
B|-------------------------------------------------------|
G|------2----2--------2----2------2----2--2----2----2--2-|
D|----2----2---2----2----2---2--4----4-------2----2------|
A|--4----4--------5----5---------------------------------|
E|-------------------------------------------------------|
                  ^(Play three times)^

Guitar 1 (Distortion)

E|---------------------------------0----0--------0----0--|
B|-------------------------------------------------------|
G|-----2----2--------2----2------2----2---2----2----2--2-|
D|---2----2---2----2----2---2--4----4--------2----2------|
A|-4----4--------5----5----------------------------------|
E|-------------------------------------------------------|
                  ^(Play two times)^

Guitar 2 (Auto-Wah and Clean)

E|---------------------------------0-------------0-------|
B|-------------------------------------------------------|
G|-----2-------------2-----------2-------------2---------|
D|---2-------------2-----------4-------------2-----------|
A|-4-------------5---------------------------------------|
E|-------------------------------------------------------|
                  ^(Play five times)^


PRE-CHORUS 3:

Guitar 1 (Distortion)

E|-------------------------------------------------------|
B|-------------------------------------------------------|
G|-------------------------------------------------------|
D|--9--9/11--11-11\9--9--9/12--12-12\9-------------------|
A|--9--9/11--11-11\9--9--9/12--12-12\9-------------------|
E|--7--7/-9---9--9\7--7--7/10--10-10\7-------------------|
                  ^(Play four times)^


CHORUS 3:

Guitar 1 (Distortion)

E|-------------------------------------------------------|
B|-------------------------------------------------------|
G|--6-------7--------------------------------------------|
D|--7-------7--------------------------------------------|
A|--7-------5--------------------------------------------|
E|--5----------------------------------------------------|
                  ^(Play seven times)^

E|-------------------------------------------------------|
B|-------------------------------------------------------|
G|--6----7-----------------------------------------------|
D|--7----7-----------------------------------------------|
A|--7----5-----------------------------------------------|
E|--5----------------------------------------------------|
                   ^(Fade out)^

Guitar 2 (Slight Distortion and Auto-Wah)

E|--9v------10v------12v---------------------------------|
B|-------------------------------------------------------|
G|-------------------------------------------------------|
D|-------------------------------------------------------|
A|-------------------------------------------------------|
E|-------------------------------------------------------|
                  ^(Play seven times)^

E|--9v---10vvvv------------------------------------------|
B|-------------------------------------------------------|
G|-------------------------------------------------------|
D|-------------------------------------------------------|
A|-------------------------------------------------------|
E|-------------------------------------------------------|
                  ^(Fade out)^