Radioman                                               |     Key
                                                       |---------------
Standard Tuning                                        |/= slide up
                                                       |p= pull off
Chords Used:                                           |_______________

    D  Am  C  G
E|--0--0---3--3------------------------|
B|--3--1---3--3------------------------|
G|--2--2---0--0------------------------|
D|--0--2---2--0------------------------|
A|-----0---3--2------------------------|
E|------------3------------------------|


INTRO into VERSE 1:

Guitar 1 (Slight Distortion)

E|------0-----0-----0------------------|
B|------3-----1-----1---0-1-0p1--------|
G|----2---------------0----------------|
D|--0-------2-----2--------------------|
A|--------0-----3----------------------|
E|-------------------------------------|
           ^(Play six times)^

Guitar 2 (Clean, Delay)

E|--10-------------------------8-------|
B|10-------------------------10--------|
G|-------------------------------------|
D|-------------------------------------|
A|-------------------------------------|
E|-------------------------------------|
           ^(Play three times)^

Guitar 3 (Acoustic)

Strum D, Am, C, G 
^(Play six times)^


CHORUS 1:

Guitar 1 (Distortion)

E|-------------------------------------|
B|-------------------------------------|
G|-------------------------------------|
D|--12--7--10--5-----------------------|
A|--12--7--10--5-----------------------|
E|--10--5---8--3-----------------------|
        ^(Play four times)^

Guitar 2 (Clean)

E|10--10---8---8---8---8---7---7-------|
B|--10--10--10--10---8---8---8---8-----|
G|-------------------------------------|
D|-------------------------------------|
A|-------------------------------------|
E|-------------------------------------|
           ^(Play four times)^

Guitar 3 (Acoustic)

Strum D, Am, C, G 
^(Play four times)^


VERSE 2:

Guitar 1 (Slight Distortion)

E|------0-----0-----0------------------|
B|------3-----1-----1---0-1-0p1--------|
G|----2---------------0----------------|
D|--0-------2-----2--------------------|
A|--------0-----3----------------------|
E|-------------------------------------|
           ^(Play four times)^

Guitar 2 (Clean, Delay)

E|--10-------------------------8-------|
B|10-------------------------10--------|
G|-------------------------------------|
D|-------------------------------------|
A|-------------------------------------|
E|-------------------------------------|
           ^(Play two times)^


CHORUS 2:

Guitar 1 (Distortion)

E|-------------------------------------|
B|-------------------------------------|
G|-------------------------------------|
D|--12--7--10--5-----------------------|
A|--12--7--10--5-----------------------|
E|--10--5---8--3-----------------------|
        ^(Play six times)

Guitar 2 (Clean)

E|10--10---8---8---8---8---7---7-------|
B|--10--10--10--10---8---8---8---8-----|
G|-------------------------------------|
D|-------------------------------------|
A|-------------------------------------|
E|-------------------------------------|
           ^(Play six times)^

Guitar 3 (Acoustic)

Strum D, Am, C, G 
^(Play four times)^


BRIDGE:

Guitar 1 (Clean, Delay, Tremolo)

E|------------------------------------8----|
B|------13-------13-------13-------10--10--|
G|----12-------12-------12--12--10---------|
D|--10----10-9-----9-----------------------|
A|-------------------12--------------------|
E|-----------------------------------------|
        ^(Play six times)^

Guitar 2 (Acoustic)

Strum D, Am, C, G 
^(Play  times)^


CHORUS 3:

Guitar 1 (Distortion)

E|-------------------------------------|
B|-------------------------------------|
G|-------------------------------------|
D|--12--7--10--5-----------------------|
A|--12--7--10--5-----------------------|
E|--10--5---8--3-----------------------|
        ^(Play seven times)^

E|-------------------------------------|
B|-------------------------------------|
G|-------------------------------------|
D|--12--7--10--5/12--------------------|
A|--12--7--10--5/12--------------------|
E|--10--5---8--3/10--------------------|

Guitar 2 (Clean)

E|10--10---8---8---8---8---7---7-------|
B|--10--10--10--10---8---8---8---8-----|
G|-------------------------------------|
D|-------------------------------------|
A|-------------------------------------|
E|-------------------------------------|
           ^(Play seven times)^

E|10--10---8---8---8---8---7---7---10--|
B|--10--10--10--10---8---8---8---8-10--|
G|-------------------------------------|
D|-------------------------------------|
A|-------------------------------------|
E|-------------------------------------|