So Well                                                   |   Key
                                                          |------------
Standard Tuning                                           |/= slide up
                                                          |____________
INTRO into VERSE 1:

Guitar (Clean)

E|--5-7---5---8------------------------|
B|--8-8---8---8------------------------|
G|--0-0---0---0------------------------|
D|-------------------------------------|
A|-------------------------------------|
E|-------------------------------------|
       ^(Play six times)^

CHORUS 1:

Guitar 1 (Slight Distortion)

E|-------------------------------------|
B|-------------------------------------|
G|-------------------------------------|
D|--5--5/7-7--3------------------------|
A|--5--5/7-7--3------------------------|
E|--3--3/5-5--1------------------------|
       ^(Play two times)^

Guitar 2 (Clean)

E|----------------------------------------------------------|
B|------8-----8-------8-----8-------1-----1-------1-----1---|
G|----7-----7---5---5-----5---5---0-----0---0---0-----0---0-|
D|--5-----5-------7-----7-------3-----3-------3-----3-------|
A|----------------------------------------------------------|
E|----------------------------------------------------------|
               ^(Play two times)^

Guitar 3 (Clean)

E|--7---7---7---7---8---8---8---8------|
B|----8---8---8---8---8---8---8---8----|
G|-------------------------------------|
D|-------------------------------------|
A|-------------------------------------|
E|-------------------------------------|
         ^(Play four times)^


VERSE 2:

Guitar (Clean)

E|--5-7---5---8------------------------|
B|--8-8---8---8------------------------|
G|--0-0---0---0------------------------|
D|-------------------------------------|
A|-------------------------------------|
E|-------------------------------------|
       ^(Play four times)^


CHORUS 2:

Guitar 1 (Slight Distortion)

E|-------------------------------------|
B|-------------------------------------|
G|-------------------------------------|
D|--5--5/7-7--3------------------------|
A|--5--5/7-7--3------------------------|
E|--3--3/5-5--1------------------------|
       ^(Play two times)^

Guitar 2 (Clean)

E|----------------------------------------------------------|
B|------8-----8-------8-----8-------1-----1-------1-----1---|
G|----7-----7---5---5-----5---5---0-----0---0---0-----0---0-|
D|--5-----5-------7-----7-------3-----3-------3-----3-------|
A|----------------------------------------------------------|
E|----------------------------------------------------------|
               ^(Play two times)^

Guitar 3 (Distortion)

E|--7---7---7---7---8---8---8---8------|
B|----8---8---8---8---8---8---8---8----|
G|-------------------------------------|
D|-------------------------------------|
A|-------------------------------------|
E|-------------------------------------|
         ^(Play four times)^


BRIDGE:

Guitar 1 (Clean)

E|-------------------------------------|
B|--2---0---3--------------------------|
G|--2---2---2---2----------------------|
D|--------------4----------------------|
A|-------------------------------------|
E|-------------------------------------|
       ^(Play two times)^

Guitar 2 (Clean)

E|-------------------------------------|
B|--2---0---3--------------------------|
G|--2---2---2---2----------------------|
D|--------------4----------------------|
A|-------------------------------------|
E|-------------------------------------|
^(Play at the beginning of the second measure)^


VERSE 3:

Guitar (Clean)

E|--5-7---5---8------------------------|
B|--8-8---8---8------------------------|
G|--0-0---0---0------------------------|
D|-------------------------------------|
A|-------------------------------------|
E|-------------------------------------|
       ^(Play four times)^


CHORUS 3:

Guitar 1 (Slight Distortion)

E|-------------------------------------|
B|-------------------------------------|
G|-------------------------------------|
D|--5--5/7-7--3------------------------|
A|--5--5/7-7--3------------------------|
E|--3--3/5-5--1------------------------|
       ^(Play six times)^

Guitar 2 (Clean)

E|----------------------------------------------------------|
B|------8-----8-------8-----8-------1-----1-------1-----1---|
G|----7-----7---5---5-----5---5---0-----0---0---0-----0---0-|
D|--5-----5-------7-----7-------3-----3-------3-----3-------|
A|----------------------------------------------------------|
E|----------------------------------------------------------|
               ^(Play six times)^

Guitar 3 (Distortion)

E|--7---7---7---7---8---8---8---8------|
B|----8---8---8---8---8---8---8---8----|
G|-------------------------------------|
D|-------------------------------------|
A|-------------------------------------|
E|-------------------------------------|
         ^(Play twelve times)^


OUTRO:

Guitar (Clean)

E|-------------------------------------|
B|------1-----1------------------------|
G|----0-----0---0----------------------|
D|--3-----3----------------------------|
A|-------------------------------------|
E|-------------------------------------|
               ^(Play six times)^
                 ^(Fade out)^