Tinsel Town                                       |     Key    
                                                  |----------------    
Dropped D Tuning                                  |/= slide up   
                                                  |\= slide down    
INTRO into VERSE 1:                               |gds= gradual slide                                                    |____________________
                                                 
Guitar 1 (Clean)

E|-------------------------------------|
B|--10---------------------------------|
G|-------------------------------------|
D|-----11------------------------------|
A|-------------------------------------|
D|-------------------------------------|
            ^(Repeat)^


CHORUS 1:

Guitar 1 (Clean)

E|-------------------------------------|
B|--10---------------------------------|
G|-------------------------------------|
D|-----11------------------------------|
A|-------------------------------------|
D|-------------------------------------|
            ^(Repeat)^

Guitar 2 (Clean)

E|--9----9----9----9----10----10----10----10----|
B|----10---10---10---10----10----10----10----10-|
G|----------------------------------------------|
D|----------------------------------------------|
A|----------------------------------------------|
D|----------------------------------------------|
            ^(Repeat)^


PRE-VERSE 1 into VERSE 2:

Guitar 1 (Clean)

E|-------------------------------------|
B|--10---------------------------------|
G|-------------------------------------|
D|-----11------------------------------|
A|-------------------------------------|
D|-------------------------------------|
            ^(Repeat)^


CHORUS 2:

Guitar 1 (Clean)

E|-------------------------------------|
B|--10---------------------------------|
G|-------------------------------------|
D|-----11------------------------------|
A|-------------------------------------|
D|-------------------------------------|
            ^(Repeat)^

Guitar 2 (Clean)

E|--9----9----9----9----10----10----10----10----|
B|----10---10---10---10----10----10----10----10-|
G|----------------------------------------------|
D|----------------------------------------------|
A|----------------------------------------------|
D|----------------------------------------------|
            ^(Repeat)^


BRIDGE:

Guitar 1 (Clean)

E|-------------------------------------|
B|--10---------------------------------|
G|-------------------------------------|
D|-----11------------------------------|
A|-------------------------------------|
D|-------------------------------------|
            ^(Repeat)^

Guitar 2 (Clean, Auto-Wah, Delay, and slight vibrato)

E|-------------------------------------|
B|--12(hold)----14(hold)---------------|
G|-------------------------------------|
D|-------------------------------------|
A|-------------------------------------|
D|-------------------------------------|
            ^(Play two times)^


CHORUS 3:

Guitar 1 (Crunch)

E|-----------------------------|
B|-----------------------------|
G|-----------------------------|
D|--7--0--0/4-4--4\0-0---------|
A|--7--0--0/4-4--4\0-0---------|
D|--7--0--0/4-4--4\0-0---------|
            ^(Play five times)^

E|------------------------------|
B|------------------------------|
G|------------------------------|
D|--7--0--0/4-4--4\0-0--7(hold)-|
A|--7--0--0/4-4--4\0-0--7(hold)-|
D|--7--0--0/4-4--4\0-0--7(hold)-|

Guitar 2 (Clean)

E|-------------------------------------|
B|--10---------------------------------|
G|-------------------------------------|
D|-----11------------------------------|
A|-------------------------------------|
D|-------------------------------------|
            ^(Repeat)^

Guitar 3 (Clean)

E|--9----9----9----9----10----10----10----10----|
B|----10---10---10---10----10----10----10----10-|
G|----------------------------------------------|
D|----------------------------------------------|
A|----------------------------------------------|
D|----------------------------------------------|
            ^(Repeat)^

Guitar 4 (Clean, Auto-Wah, Delay, and slight vibrato)

E|-------------------------------------|
B|--14(hold)---------------------------|
G|-------------------------------------|
D|-------------------------------------|
A|-------------------------------------|
D|-------------------------------------|
^(Play at beginning of 4th measure, hold until 5th measure)^

E|-----------------------------------------|
B|--14(hold)--15(hold)--17(hold)--15(hold)-|
G|-----------------------------------------|
D|-----------------------------------------|
A|-----------------------------------------|
D|-----------------------------------------|
            
E|-----------------------------------------|
B|--14(hold)--15(hold)--17(hold)-----------|
G|-----------------------------------------|
D|-----------------------------------------|
A|-----------------------------------------|
D|-----------------------------------------|

Guitar 5 (Distortion, Delay)

E|-------------------------------------|
B|-------------------------------------|
G|-------------------------------------|
D|-------------------------------------|
A|--gds24\3----------------------------|
D|-------------------------------------|
 ^(Play after last measure in chorus 3)^