Waiting for Changes                               |       Key
                                                  |--------------------
Dropped D Tuning                                  |/= slide up
                                                  |\= slide down
                                                  |pm= palm mute
VERSE 1:                                          |p= pull off
                                                  |gdb= gradual bend
Guitar 1 (Crunch)                                 |____________________

E|------------------------------------------------------|
B|------------------------------------------------------|
G|------------------------------------------------------|
D|------------------------------------------------------|
A|------------------------------------------------------|
D|--0pm--9pm--10pm--0pm-5pm-----------------------------|
               ^(Play two times)^

Guitar 2 (Distortion and Crunch)

E|------------------------------------------------------|
B|------------------------------------------------------|
G|------------------------------------------------------|
D|--0--9--10--0-5---------------------------------------|
A|--0--9--10--0-5---------------------------------------|
D|--0--9--10--0-5---------------------------------------|  
         ^(Comes in on second measure of verse 1)^  
                
E|------------------------------------------------------|
B|------------------------------------------------------|
G|------------------------------------------------------|
D|--0--9--10--0-5-0-5\----------------------------------|
A|--0--9--10--0-5-0-5\----------------------------------|
D|--0--9--10--0-5-0-5\----------------------------------|

E|------------------------------------------------------|
B|------------------------------------------------------|
G|------------------------------------------------------|
D|--0--9--10--0-5---------------------------------------|
A|--0--9--10--0-5---------------------------------------|
D|--0--9--10--0-5---------------------------------------|  
                  
E|------------------------------------------------------|
B|------------------------------------------------------|
G|------------------------------------------------------|
D|--0--9--10--0-5-0-5\----------------------------------|
A|--0--9--10--0-5-0-5\----------------------------------|
D|--0--9--10--0-5-0-5\----------------------------------|


CHORUS 1:

Guitar 1

E|------------------------------------------------------|
B|------------------------------------------------------|
G|------------------------------------------------------|
D|--0--2--2/10--10--10\2--2-----------------------------|
A|--0--2--2/10--10--10\2--2-----------------------------|
D|--0--2--2/10--10--10\2--2-----------------------------|
                ^(Play two times)^

Guitar 2 (Distortion)

E|----------------------------------------------3p2-3p2-|
B|--5p3-5p3-3-3-3--5p3-5p3-3-3-3--5p3-5p3-3-3-3---------|
G|------------------------------------------------------|
D|------------------------------------------------------|
A|------------------------------------------------------|
D|------------------------------------------------------|
               ^(Play two times)^


VERSE 2:

Guitar 1 (Distortion and Crunch)

E|------------------------------------------------------|
B|------------------------------------------------------|
G|------------------------------------------------------|
D|--0pm--9pm--10pm--0pm-5pm-----------------------------|
A|--0pm--9pm--10pm--0pm-5pm-----------------------------|
D|--0pm--9pm--10pm--0pm-5pm-----------------------------|  
              ^(Play four times)^  

Guitar 2 (Distortion)

E|------------------------------------------------------|
B|--3--gdb5--3-------------------------------------------|
G|------------------------------------------------------|
D|------------------------------------------------------|
A|------------------------------------------------------|
D|------------------------------------------------------|
               ^(Play eight times)^


CHORUS 2:

Guitar 1

E|------------------------------------------------------|
B|------------------------------------------------------|
G|------------------------------------------------------|
D|--0--2--2/10--10--10\2--2-----------------------------|
A|--0--2--2/10--10--10\2--2-----------------------------|
D|--0--2--2/10--10--10\2--2-----------------------------|
                ^(Play four times)^

Guitar 2 (Distortion)

E|----------------------------------------------3p2-3p2-|
B|--5p3-5p3-3-3-3--5p3-5p3-3-3-3--5p3-5p3-3-3-3---------|
G|------------------------------------------------------|
D|------------------------------------------------------|
A|------------------------------------------------------|
D|------------------------------------------------------|
               ^(Play four times)^


BRIDGE:

Guitar 1 (Clean)

E|------------------------------------------------------|
B|------------------------------------------------------|
G|------------------------------------------------------|
D|--7-6-5-4---------------------------------------------|
A|--5-5-5-5---------------------------------------------|
D|------------------------------------------------------|
                ^(Play two times)^

Guitar  (Heavy Distortion)

E|------------------------------------------------------|
B|------------------------------------------------------|
G|------------------------------------------------------|
D|------------------------------------------------------|
A|--12-11-10--9-----------------------------------------|
D|--12-12-12-12-----------------------------------------|
                ^(Play two times)^


VERSE 3:

Guitar 1 (Crunch)

E|------------------------------------------------------|
B|------------------------------------------------------|
G|------------------------------------------------------|
D|------------------------------------------------------|
A|------------------------------------------------------|
D|--0pm--9pm--10pm--0pm-5pm-----------------------------|
               ^(Play two times)^

Guitar 2 (Distortion and Crunch)

E|------------------------------------------------------|
B|------------------------------------------------------|
G|------------------------------------------------------|
D|--0--9--10--0-5---------------------------------------|
A|--0--9--10--0-5---------------------------------------|
D|--0--9--10--0-5---------------------------------------|  
                  
E|------------------------------------------------------|
B|------------------------------------------------------|
G|------------------------------------------------------|
D|--0--9--10--0-5-0-5\----------------------------------|
A|--0--9--10--0-5-0-5\----------------------------------|
D|--0--9--10--0-5-0-5\----------------------------------|

Guitar 3 (Metallic Flanger)

E|------------------------------------------------------|
B|--5p3-5p3-3--3-5p3-5p3-3--3---------------------------|
G|------------------------------------------------------|
D|------------------------------------------------------|
A|------------------------------------------------------|
D|------------------------------------------------------|
               ^(Play four times)^


CHORUS 3:

Guitar 1

E|------------------------------------------------------|
B|------------------------------------------------------|
G|------------------------------------------------------|
D|--0--2--2/10--10--10\2--2-----------------------------|
A|--0--2--2/10--10--10\2--2-----------------------------|
D|--0--2--2/10--10--10\2--2-----------------------------|
                ^(Play four times)^

Guitar 2 (Distortion)

E|----------------------------------------------3p2-3p2-|
B|--5p3-5p3-3-3-3--5p3-5p3-3-3-3--5p3-5p3-3-3-3---------|
G|------------------------------------------------------|
D|------------------------------------------------------|
A|------------------------------------------------------|
D|------------------------------------------------------|
               ^(Play four times)^


CHORUS 4:

Guitar 1 (Distortion)

E|------------------------------------------------------|
B|------------------------------------------------------|
G|------------------------------------------------------|
D|--0--2--2/10--10--10\2--2-----------------------------|
A|--0--2--2/10--10--10\2--2-----------------------------|
D|--0--2--2/10--10--10\2--2-----------------------------|
                
E|------------------------------------------------------|
B|------------------------------------------------------|
G|------------------------------------------------------|
D|--0--2--2/10--10--10\2--2-2-2-2-2-2-0-----------------|
A|--0--2--2/10--10--10\2--2-2-2-2-2-2-0-----------------|
D|--0--2--2/10--10--10\2--2-2-2-2-2-2-0-----------------|
                  ^(Fade out)^

Guitar 2 (Heavy Distortion)

E|------------------------------------------------------|
B|--5p3-5p3-3-3-3--5p3-5p3-3-3-3------------------------|
G|------------------------------------------------------|
D|------------------------------------------------------|
A|------------------------------------------------------|
D|------------------------------------------------------|
                 ^(Play four times)^
                    ^(Fade out)^