Feeder-Yesterday Went Too Soon

Intro: RELATIVE TO CAPO

Strike G using the delay effect

Verse: Here are the chords- RELATIVE TO CAPO

    G  G/F#  Em7 C9   
E|--3---3----3---3---|
B|--3---3----3---3---|
G|--0---0----0---0---|
D|--0---0----2---2---|
A|--2---0----2---3---|
E|--3---2----0-------|

Here's an example of the chord changes:

G          G/F#                   Em7                          C9
Sitting in today watching traffic buzzing by and faces nosing in,

Link to Chorus: Here are the chords- RELATIVE TO CAPO

    D   Em7 C9
E|--2---3---3---|
B|--3---3---3---|
G|--2---0---0---|
D|--0---2---2---|
A|--0---2---3---|
E|------0-------|

    D        Em7  C9                               D    Em7
I'm climbing high up above the streets and rows of neon lights,
C9                                   
I'm holding out my hand and I'm alive....

Chorus: 

G D C9- 3 times
Em7 D C9- last line- "But I'm missing yesterday...."