You're My Evergreen                                  |     Key
                                                     |-----------------
Dropped D Tuning                                     |/= slide up
                                                     |\= slide down
INTRO:                                               |p= pull off
                                                     |b= bend
Guitar 1 (Distortion)                                |v= vibrato
                                                     |_________________
E|---8--8--8--8-7-10-10-10-10-10-10----|
B|---8--8--8--8-8-10-10-10-10-10-10----|
G|--10-10-10-10-9-12-12-12-12-12-12----|
D|--10-10-10-10-9-12-12-12-12-12-12----|
A|---8--8--8--8-7-10-10-10-10-10-10----|
D|-------------------------------------|
          ^(Play six times)^

Guitar 2 (Distortion)

E|-------------------------------------|
B|-------------------------------------|
G|-------------------------------------|
D|--3-3-3-3-2-5-5-5-5-5-5--------------|
A|--3-3-3-3-2-5-5-5-5-5-5--------------|
D|--3-3-3-3-2-5-5-5-5-5-5--------------|
 ^(Play at beginning of third measure)^
        ^(Play four times)^


VERSE 1:

Guitar 1 (Clean)

E|---8--8--8--8--8-10-10-10-10-10-10-10-|
B|---8--8--8--8--8-10-10-10-10-10-10-10-|
G|--10-10-10-10-10-12-12-12-12-12-12-12-|
D|--10-10-10-10-10-12-12-12-12-12-12-12-|
A|---8--8--8--8--8-10-10-10-10-10-10-10-|
D|--------------------------------------|
          ^(Play eight times)^

Guitar 2 (Clean)

E|--------------------------------------|
B|---8---8---8--8---8---8---8---8--8----|
G|--10--10--10-10--10--10--10--10-10----|
D|--10--10--10-10--10--10--10--10-10----|
A|--------------------------------------|
D|--------------------------------------|
^(Play at the beginning of the 5th measure)^
         ^(Play four times)^


PRE-CHORUS 1:

Guitar 1 (Distortion)

E|-------------------------------------|
B|-------------------------------------|
G|-------------------------------------|
D|--7--0--3--3/10-10--8----------------|
A|--7--0--3--3/10-10--8----------------|
D|--7--0--3--3/10-10--8----------------|
         ^(Play two times)^

Guitar 2 (Distortion)

E|-------------------------------------------------|
B|-------------------------------------------------|
G|-------------------------------------------------|
D|-------------------------------------------------|
A|----------------3/5-5-5-5/7-7-7-7/8-8-8-8/10v\8v-|
D|-------------------------------------------------|
            ^(Play during first measure)^

E|-------------------------------------------------|
B|-------------------------------------------------|
G|-------------------------------------------------|
D|-------------------------------------------------|
A|----------------3/5-5-5-5/7-7-7-7/8-8-8-8/10v----|
D|-------------------------------------------------|
            ^(Play during second measure)^


CHORUS 1:

Guitar 1 (Distortion)

E|-------------------------------------|
B|-------------------------------------|
G|-------------------------------------|
D|--3--3/7-7--5------------------------|
A|--3--3/7-7--5------------------------|
D|--3--3/7-7--5------------------------|
            ^(Play four times)^

E|-------------------------------------|
B|-------------------------------------|
G|-------------------------------------|
D|--3-3-3-3-2-5-5-5-5-5-5--------------|
A|--3-3-3-3-2-5-5-5-5-5-5--------------|
D|--3-3-3-3-2-5-5-5-5-5-5--------------|
        ^(Play two times)^

Guitar 2 (Clean)

E|---8--8--8--8--8-10-10-10-10-10-10-10-|
B|---8--8--8--8--8-10-10-10-10-10-10-10-|
G|--10-10-10-10-10-12-12-12-12-12-12-12-|
D|--10-10-10-10-10-12-12-12-12-12-12-12-|
A|---8--8--8--8--8-10-10-10-10-10-10-10-|
D|--------------------------------------|
          ^(Play six times)^



VERSE 2:

Guitar 1 (Clean)

E|---8--8--8--8--8-10-10-10-10-10-10-10-|
B|---8--8--8--8--8-10-10-10-10-10-10-10-|
G|--10-10-10-10-10-12-12-12-12-12-12-12-|
D|--10-10-10-10-10-12-12-12-12-12-12-12-|
A|---8--8--8--8--8-10-10-10-10-10-10-10-|
D|--------------------------------------|
          ^(Play eight times)^

Guitar 2 (Clean)

E|--------------------------------------|
B|---8---8---8--8--10--10--10--10-10----|
G|--10--10--10-10--12--12--12--12-12----|
D|--10--10--10-10--12--12--12--12-12----|
A|--------------------------------------|
D|--------------------------------------|
^(Play at the beginning of the 5th measure)^
         ^(Play four times)^


PRE-CHORUS 2:

Guitar 1 (Distortion)

E|-------------------------------------|
B|-------------------------------------|
G|-------------------------------------|
D|--7--0--3--3/10-10--8----------------|
A|--7--0--3--3/10-10--8----------------|
D|--7--0--3--3/10-10--8----------------|
         ^(Play two times)^

Guitar 2 (Distortion)

E|-------------------------------------------------|
B|-------------------------------------------------|
G|-------------------------------------------------|
D|-------------------------------------------------|
A|----------------3/5-5-5-5/7-7-7-7/8-8-8-8/10v\8v-|
D|-------------------------------------------------|
            ^(Play during first measure)^

E|-------------------------------------------------|
B|-------------------------------------------------|
G|-------------------------------------------------|
D|-------------------------------------------------|
A|----------------3/5-5-5-5/7-7-7-7/8-8-8-8/10v----|
D|-------------------------------------------------|
            ^(Play during second measure)^


CHORUS 2:

Guitar 1 (Distortion)

E|-------------------------------------|
B|-------------------------------------|
G|-------------------------------------|
D|--3--3/7-7--5------------------------|
A|--3--3/7-7--5------------------------|
D|--3--3/7-7--5------------------------|
            ^(Play eight times)^


Guitar 2 (Clean)

E|---8--8--8--8--8-10-10-10-10-10-10-10-|
B|---8--8--8--8--8-10-10-10-10-10-10-10-|
G|--10-10-10-10-10-12-12-12-12-12-12-12-|
D|--10-10-10-10-10-12-12-12-12-12-12-12-|
A|---8--8--8--8--8-10-10-10-10-10-10-10-|
D|--------------------------------------|
          ^(Play eight times)^

Guitar 3 (Distortion)

E|--8---8--8---8---10p8-----------------|
B|----8---8--8---8----------------------|
G|--------------------------------------|
D|--------------------------------------|
A|--------------------------------------|
D|--------------------------------------|
  ^(Play at the beginning of the 5th measure)^
             ^(Play four times)^


BRIDGE:

Guitar 1 (Distortion)

E|--------------------------------------|
B|--------------------------------------|
G|--------------------------------------|
D|--7-7-7-9-7-11-11-11-11-11bv----------|
A|--------------------------------------|
D|--0-0-0-0-0--0--0--0--0--0------------|
         ^(Play three times)^
  
E|--------------------------------------|
B|--------------------------------------|
G|--------------------------------------|
D|--7-7-7-9-7-11-11-11-11bv-------------|
A|--------------------------------------|
D|--0-0-0-0-0--0--0--0--0---------------|

E|--------------------------------------|
B|--------------------------------------|
G|--------------------------------------|
D|--7-7-7-9-7-11-11-11-11-11bv----------|
A|--------------------------------------|
D|--0-0-0-0-0--0--0--0--0--0------------|

E|--------------------------------------|
B|--------------------------------------|
G|--------------------------------------|
D|--7-7-7-9-7-11-11-11-11bv-------------|
A|--------------------------------------|
D|--0-0-0-0-0--0--0--0--0---------------|


PRE-CHORUS 3:

Guitar 1 (Distortion)

E|-------------------------------------|
B|-------------------------------------|
G|-------------------------------------|
D|--7--0--3--3/10-10--8----------------|
A|--7--0--3--3/10-10--8----------------|
D|--7--0--3--3/10-10--8----------------|
         ^(Play three times)^

Guitar 2 (Distortion)

E|-------------------------------------------------|
B|-------------------------------------------------|
G|-------------------------------------------------|
D|-------------------------------------------------|
A|----------------3/5-5-5-5/7-7-7-7/8-8-8-8/10v\8v-|
D|-------------------------------------------------|
            ^(Play during first measure)^

E|-------------------------------------------------|
B|-------------------------------------------------|
G|-------------------------------------------------|
D|-------------------------------------------------|
A|----------------3/5-5-5-5/7-7-7-7/8-8-8-8/10v\8v-|
D|-------------------------------------------------|
            ^(Play during second measure)^

E|-------------------------------------------------|
B|-------------------------------------------------|
G|-------------------------------------------------|
D|-------------------------------------------------|
A|----------------3/5-5-5-5/7-7-7-7/8-8-8-8/10v----|
D|-------------------------------------------------|
            ^(Play during third measure)^


CHORUS 3:

Guitar 1 (Distortion)

E|-------------------------------------|
B|-------------------------------------|
G|-------------------------------------|
D|--3--3/7-7--5------------------------|
A|--3--3/7-7--5------------------------|
D|--3--3/7-7--5------------------------|
            ^(Play twelve times)^


Guitar 2 (Clean)

E|---8--8--8--8--8-10-10-10-10-10-10-10-|
B|---8--8--8--8--8-10-10-10-10-10-10-10-|
G|--10-10-10-10-10-12-12-12-12-12-12-12-|
D|--10-10-10-10-10-12-12-12-12-12-12-12-|
A|---8--8--8--8--8-10-10-10-10-10-10-10-|
D|--------------------------------------|
          ^(Play twelve times)^

Guitar 3 (Distortion)

E|--8---8--8---8---10p8-----------------|
B|----8---8--8---8----------------------|
G|--------------------------------------|
D|--------------------------------------|
A|--------------------------------------|
D|--------------------------------------|
  ^(Play at the beginning of the 5th measure)^
             ^(Play eight times)^