The Fire Theft - Waste Time

Intro
A5

                  F5                   A5
Don't wanna waste time, is it a matter of mind?
                 F5                        C           A5
Don't wanna lose control, I've gotta say, "Goodbye, my love"

                        F5                     A5
We just couldn't get it right, it was a matter of time, oh
      F5
All I wanted was to stay there in your arms
                                        C
But when the door opened I had to say, "Goodbye, goodbye"

      Am7
And I knew that it was not our fate
                                               A5
But I waited all those years to hear you say

                F5        G
"I always loved you, only you, only you"
      F5                                 C-F
But I knew that it was just too late, my Juliet no

         F-Bb                         
Though I still have dreams of you and I together again
C-F
I can't afford to lie, I have to say, "Goodbye, goodbye"
          F-Bb                   C-F
We didn't know the future but we did what was right

F-Bb  C-F   x3 to fade


C-F = this repeated
   C          F  
|------------------------|
|--5----5---5-6-5-6---5--|
|--5----5---5-5-5-5---5--|
|--5----5---5-3-3-3---3--|
|--3----3---3-3-3-3---3--|
|------------------------|

F-Bb = this repeated
  F             Bb
|-------------------------------|
|--10----10---10-11-10-11---10--|
|--10----10---10-10-10-10---10--|
|--10----10---10--8--8--8----8--|
|---8-----8----8--8--8--8----8--|
|-------------------------------|

http://www.sparkystabs.co.uk