Alone+Easy Target by Foo Fighters

Dropped D tuning

Intro/Verse

Starts with a fade in, just strum 6,5 and 4 strings lightly.

Then the fun begins..............................
----8----8-----8---8-----8----8---0-----------------------------------
----8p7--8-----8p7-8-----8p7--8---0---------5----------------5--------
----7----7-----7---7-----7----7---0---------4--4-----------4-4-4------
--0------0---------0----------0---0--4--4---4--4--4--0--2--2---2--2-0- 
--0------0---------0----------0------4--4---------4--0--2---------2-0-
--0------0---------0----------0------4--4------------0--2---------2-0-

That's it, repeat it  8 times and then comes the chorus..............................
------------------------------------------------------------
------------------------------------------------------------
------------------------------------------5-5-5-5-5-5-5-5---
--0-0-3-5-5-5-3-0-0-3-7-7-7-0-3-0-3-0-3-0-5-5-5-5-5-5-5-5---
--0-0-3-5-5-5-3-0-0-3-7-7-7-0-3-0-3-0-3-0-3-3-3-3-3-3-3-3---
--0-0-3-5-5-5-3-0-0-3-7-7-7-0-3-0-3-0-3-0-------------------

Repeat this twice, and then Verse II comes, then the chorus riff again x4, and then...................
---------------------------------------
---------------------------------------
---------------------------------------
-5-5-5-5-5-5-5-5-5-5-5-5---3--------0--
-5-5-7-5-5-5-7-5-5-7-5-5---3--------0--
-5-5-5-5-5-5-5-5-5-5-5-5---3--------0--
x3

-------------------------------------
-------------------------------------
-------------------------------------
-7-7-7-7-7-7-7-7-7-7-7-7-7-10-----0--
-7-7-7-7-7-7-7-7-7-7-7-7-7-10-----0--
-7-7-7-7-7-7-7-7-7-7-7-7-7-10-----0--
x3 and on the last time (4th) just play the 7's and then a dead stop and go back to the beginning.

They knew all along
They're not dumb, they were so wrong
She's not always fun
Hate it now, call when I'm done 
Pieces fell in place
Puzzles suck, laugh in my face
Turn and swing the pace
I'll give this, keep the good waist 
Head is on
I want out
I'm alone and I'm an easy target
Metronome
I want out
I'm alone and I'm an easy target 
Crazy t.v. dreams might be true
Not what it seems.
Food and cavitys, chewing words
Tear at the seams
He don't feel so good, don't feel bad
Not that he should
I don't feel so good, don't feel bad
Not that I should 
Did you ever listen? get out.