Foo Fighters - Best Of You

C#m7  	x42400
Asus2 	x02400
Bsus4		x24400
F#7add11	244300

Verse
                    C#m7
I've got another confession to make
         Asus2
I'm your fool
                     C#m7
Everyone's got their chains to break
        Asus2
Holdin' you
                   Bsus4        Asus2
Were you born to resist, or be abused?

1/2 Chorus
                       C#m7
Is someone getting the best
              Bsus4             Asus2
The best, the best, the best of you?
                       C#m7
Is someone getting the best
              Bsus4             Asus2
The best, the best, the best of you?

   C#m7             Bsus4         Asus2
Or are you gone and on to someone new?

w/verse
I needed somewhere to hang my head
Without your noose
You gave me something that I didn't have
But had no use
I was too weak to give in
Too strong to lose

w/verse
My heart is under arrest again
But I'll break loose
My head is giving me life or death
But I can't choose
I swear I'll never give in
I refuse

Full Chorus
                       C#m7
Is someone getting the best
              Bsus4             Asus2  F#7add11
The best, the best, the best of you?
                       C#m7
Is someone getting the best
              Bsus4             Asus2  F#7add11
The best, the best, the best of you?
                       C#m7
Has someone taken your faith?
               Bsus4    
It's real, the pain you feel
    Asus2              F#7add11
You trust, you must confess
                       C#m7
Is someone getting the best
              Bsus4             Asus2  F#7add11
The best, the best, the best of you?

Interlude (tremolo picked octaves)
C#m7                                       Asus2
--------------|-------------------------|--------------------|----------------|
--------------|-------------------------|--------------------|----------------|
--13----------|--13-----16----13----16--|--18------16--------|--16------------|
--------------|-------------------------|--------------------|----------------|
--11----------|--11-----14----11----14--|--16------14--------|--14------------|
--------------|-------------------------|--------------------|----------------|

  C#m7                                     Asus2            F#7add11
--------------|-------------------------|----------------|----------------|
--------------|-------------------------|----------------|----------------|
--13----------|--13-----16----13----16--|--18------------|--18------------|
--------------|-------------------------|----------------|----------------|
--11----------|--11-----14----11----14--|--16------------|--16------------|
--------------|-------------------------|----------------|----------------|

  Bsus4                              Asus2                              x2
------------------|---------------|------------------|---------------|
------------------|---------------|------------------|---------------|
--11--------9--8--|--8------------|--13-------11--9--|--9------------|
------------------|---------------|------------------|---------------|
---9--------7--6--|--6------------|--11--------9--7--|--7------------|
------------------|---------------|------------------|---------------|

w/chorus
Has someone taken your faith? It's real, the pain you feel
The life, the love, you'd die to heal
The hope that starts, the broken hearts
You trust, you must confess
Is someone getting the best
The best, the best, the best of you?
Is someone getting the best
The best, the best, the best of you?

w/verse
I've got another confession my friend
I'm no fool
I'm getting tired of starting again
Somewhere new
Were you born to resist, or be abused?
I swear I'll never give in, I refuse

Full chorus

Ending
-----------------------------|-----------------------------|
-----------------------------|-----------------------------|
-----------------------------|-----------------------------|
--11\---x-x--11\----x--x--x--|--11\---x-x--11\----x--x--x--|      x3
-----------------------------|-----------------------------|
---9\---x-x---9\----x--x--x--|---9\---x-x---9\----x--x--x--|

-----------------------------|-----------------------------||
-----------------------------|-----------------------------||
-----------------------------|-----------------------------||
--11\---x-x--11\----x--x--x--|--11\---x-x--11\-------------||
-----------------------------|-----------------------------||
---9\---x-x---9\----x--x--x--|---9\---x-x---9\-------------||

http://www.sparkystabs.co.uk