Exhausted-Foo Fighters

Drop D tuning

Intro/Verse:
e:---------1------------|----------1------------|
B:---------3----3-----3-|----------3----3-----3-|
G:---------2-------2----|----------2-------2----|
D:-0----0---------------|-0----0----------------|
A:-0----0---------------|-2----2----------------|
D:-0----0---------------|-x----x----------------|
           I'm  not    around that much.    I'm

e:----------0------------|-----------0------------|
B:----------1----1-----1-|-----------1----1-----1-|
G:----------2-------2----|-2----2----2-------2----|
D:-x----x----------------|-2----2-----------------|
A:-3----3----------------|-0----0-----------------|
D:-3----3----------------|-x----x-----------------|
  near                   exhausted

e:----------0------------|-----------0------------|
B:----------1----1-----1-|-----------1----1-----1-|
G:----------2-------2----|-2----2----2-------2----|
D:-x----x----------------|-2----2-----------------|
A:-3----3----------------|-0----0-----------------|
D:-3----3----------------|-x----x-----------------|
                      and lost.

  Pre-Chorus:
e:-------------------------------------|-----------------------|
B:-------------------------------------|-----------------------|
G:-------------------------------------|-----------------------|
D:-8-8-8-8--8-8-8-8---7-7-7-7--7-7-7-7-|-5-----5---5---5---5---|
A:-8-8-8-8--8-8-8-8---7-7-7-7--7-7-7-7-|-5-----5---5---5---5---|
D:-8-8-8-8--8-8-8-8---7-7-7-7--7-7-7-7-|-5-----5---5---5---5---|
                      ... and alone ...
  
  Riff 2 (Chorus?)
e:------------------------------------------------------------|
B:------------------------------------------------------------|
G:------------------------------------------------------------|
D:------------------------------------------------------------|
A:-0---3---5---7---3---0---3---0---3---0----------------------|
D:-0---3---5---7---3---0---3---0---3---0----4---5---7^~~~~--7-|

I'm not around that much
Running exhausted and lost
If it could be undone
Will it have costed?
It's taught and lost 
Blowing away we stray, wilted
Insuited, at fault
What if the day had stayed in bed
These baubles we've brought
At fault 
After the bliss has long ended
This caution this fault
Give me a breeze that's long winded
Accosted adult arrested