Foo Fighters-Floaty

Intro/Verse:
e:----------------------------------------------------|
B:----------------------------------------------------|
G:-8---8--8---8--8---8---8---8---8--8---8--8---8---8--|
D:-9---9--9---9--9---9---9---9---9--9---9--9---9---9--|
A:-7---7--7---7--7---7---7---7---7--7---7--7---7---7--|
E:-0-------------------------0------------------------|
   He                        floats

e:----------------------------------------------------|
B:----------------------------------------------------|
G:-8---8--8---8--8---8---8---8---8--8---8--8---8---8--|
D:-9---9--9---9--9---9---9---9---9--9---9--9---9---9--|
A:-7---7--7---7--7---7---7---7---7--7---7--7---7---7--|
E:-0-------------------------0------------------------|
   Floats                   away

e:----------------------------------------------------|
B:----------------------------------------------------|
G:-6---6--6---6--6---6---6---6---6--6---6--6---6---6--|
D:-7---7--7---7--7---7---7---7---7--7---7--7---7---7--|
A:-5---5--5---5--5---5---5---5---5--5---5--5---5---5--|
E:----------------------------------------------------|
   On         the            ground          he

e:-----------------------------------------------------|
B:-----------------------------------------------------|
G:-4---4--4---4--4---4---4---2---2--2---2--2---2---2---|
D:-5---5--5---5--5---5---5---2---2--2---2--2---2---2---|
A:-3---3--3---3--3---3---3---0---0--0---0--0---0---0---|
E:-----------------------------------------------------|
   comes         back        down.
                                           
Chorus:

  Guitar 1
e:----------------------------------------------|
B:----------------------------------------------|
G:----------------------------------------------|
D:----9---9--9---7---6-------9---9--9---7---6---|
A:----------------------------------------------|
E:0----------------------0----------------------|
                                                |
  Guitar 2                                      |
e:----------------------------------------------|
B:----------------------------------------------|
G:----------------------------------------------|
D:2----------------------2----------------------|
A:2----------------------2----------------------|
E:0----------------------0----------------------|

e:-----------------------------------------------------|
B:-----------------------------------------------------|
G:-----------------------------------------------------|
D:-6---6--6---6--6---6---6----7---7--7---7--7---7---7--|
A:-6---6--6---6--6---6---6----7---7--7---7--7---7---7--|
E:-4---4--4---4--4---4---4----5---5--5---5--5---5---5--|
   That's not as big as what's float  -  ing...

Then end on this cutesy little riff.
e:-------------------------------------|
B:-------------------------------------|
G:-------------------------------------|
D:-2-----------------------------------|
A:-2--------2--2---2----2--2---0-------|
E:-0-------------------------------4---|
 
Bridge:
e:-------------------------------------------|
B:-------------------------------------------|
G:-4--4--4--4--4--4--4---7-7-7-7-7---4---7---|
D:-4--4--4--4--4--4--4---7-7-7-7-7---4---7---|
A:-2--2--2--2--2--2--2---5-5-5-5-5---2---5---|
E:-------------------------------------------|

e:---------------------------------------------------|
B:---------------------------------------------------|
G:---------------------------------------------------|
D:-6---6--6---6--6---6---6---2---2---2---6---6---6---|
A:-6---6--6---6--6---6---6---2---2---2---6---6---6---|
E:-4---4--4---4--4---4---4---0---0---0---4---4---4---|

He floats
Floats away
On the ground
He comes back down 
She floats
Floats away
On the ground
She comes back down 
They float
Float away
On the ground
They come back down 
We float
Float away
on the ground
We come back down 
That's not as big as
What's flown around here