FOO FIGHTERS ALBUM

"This is a Call"
Chords used in this song:
F   - xx3211    G5  - 355xxx
Ab  - xx6544    Bb5 - 688xxx
F5  - 133xxx    A5  - 577xxx
Ab5 - 466xxx    Eb5 - x688xx
G   - xx5433    C5  - x355xx
Bb  - xx8766    Ab5 (root) - 066xxx
A   - xx7655
__________________________________________________________________________
Sound of plugging in Guitar


Intro:
F
Visiting is pretty, Visiting is good,
           Ab
Seems that all they ever wanted
      F          Ab5
Was a brother.   //


Verse 1:
F + F5
This'll be a secret, We can keep it good,
     Ab + Ab5
Even all he ever wanted
      F + F5
Had a problem.


Chorus 1:
G + G5    Bb + Bb5
This is a call to all my
A + A5    G + G5
Past resignations.
Bb + Bb5  A + A5
This is a call
         Ab5 (root) Ab5
To all.      /       /


Verse 2:
F+F5
Finger nails are pretty, Finger nails are good,
           Ab + Ab5
Seems that all they ever wanted
      F + F5    Ab5 (root) Ab5
Was a market.       /       /
F + F5
Their balloons are pretty, Big and say they should,
     Ab + Ab
Ever fall around,
               F + F5
Call him magic marker.


Chorus 2:
G + G5    Bb + Bb5
This is a call to all my
A + A5    G + G5
Past resignations.
Bb + Bb5  A + A5
This is a call to all.
G + G5    Bb + Bb5
This is a call to all my
A + A5    G + G5
Past resignations.
Bb + Bb5
It's been too long


Coda:
A5  Eb5  Ab5  C5  Eb5  Ab5     x6
//  /    ///  /   /    //


Repeat Verse 2

Repeat Chorus 2

Repeat Coda

Repeat Intro

Repeat Verse 1

Repeat Chorus 2

Repeat Coda twice
Behind last Coda:
Ab|-----6-------3-6-----|
Eb|-5-5---4-4-4-----4-4-|

Outro
Db|-----1-----0-1-|  First just this twice....
Ab|---------------|
Eb|-1-1---1-1-----|

Db|-----1--1-0-1-|  Then this as well four times.
Ab|--------------|
Eb|-1-1----------|

Db|-----1-3-3-|  End with this.
Ab|-------3-3-|
Eb|-1-1---1-1-|

"I'll Stick Around"

Verse (2x) :
-------------------------
-------------------------
--7-7---5-5---4-4-4---5---4-4---5-5---7-7-
--8-8---6-6---6-6-6---6---6-6---6-6---8-8-
--8-8---6-6---6-6-6---6---6-6---6-6---8-8-
------------------------

Pre-Chorus (2x) :
------------------------
------------------------
--3-3-3---5-5-5---(-3-)---
--4-4-4---5-5-5---(-3-)---
--4-4-4---3-3-3---(-1-)---
--2-2-2---------------

During PreChorus,Guitar #2 plays:
------------------------
------------------------
--5-5-5---3-3-3---
--5-5-5---3-3-3---
--3-3-3---1-1-1---
------------------------

Intro / Chorus (2x) :
------------------------
------------------------
--6-6---3-3---5-5-5---
--5-5---3-3---5-5-5---
--5-5---1-1---3-3-3---
--3-3-----------------

During Chorus,Guitar #2 plays:
-----------------------
-----8----8------8-8---
--9-9-9-9-9-9-9-9---
--9-9-9-9-9-9-9-9---
--7-7-7-7-7-7-7-7---
-----------------------

"Big Me"

E   	022100
F  	133211  or  xx3211
G  	320033
Am7 	x02213
C(add G)x32013
C  	x32010
C7  	x32310


Verse:
            C(add G)
When I talk about it
    Am7
it carries on
G                   F
reasons only knew
	C(add G)
when I talk about it
Am7       G                     F
aries of treasons all renew


Chorus:
E              F
big me to talk about it
C                        C7
I could stand to prove
E              F
if we can get around it
C                       G
I know that it's true


          C
well I talked about it
Am7
carried on
G                   F
reasons only knew
           C(add G)
but it's you
G    F         C(addG)     G
I    fell into

          C
well I talked about it
Am7
carried on
G                   F
reasons only knew
           C(add G)
but it's you
G    F         C(addG)     G
I    fell into

          C(add G)
well I talked about it
Am7
put it on
G                   F
never was it true
     C(add G)
but it's you
 G    F         C
i    fell into


the song ends with one guitar playing C
and another playing C7.


"Alone + Easy Target"

Intro/Verse:

e:-------------3---2---3---2---3---2---|
B:-------------2---2---2---2---2---2---|
G:-------------------------------------|
D:-0---0-------------------------------|
A:-0---0---0---------------------------|
D:-0-------0---------------------------|


e:-------------2-------------------0---|
B:-------------2-------------------0---|
G:-------------------------------------|
D:-4---4---------------2---2-----------|
A:-4---4---4-----------2---2---2-------|
D:-4---4---4-----------2---2---2-------|




   Chorus:

e:-----------------------------------------------------------------|
B:-----------------------------------------------------------------|
G:-----------------------------------------------------------------|
D:-0---0---0---3---5---5---5---3---0---0---0---3---7---7---7---7---|
A:-0---0---0---3---5---5---5---3---0---0---0---3---7---7---7---7---| 
D:-0---0---0---3---5---5---5---3---0---0---0---3---7---7---7---7---|
      Head    is   on                 I  want      out.


e:---------------------------|---------------------------|
B:---------------------------|---------------------------|
G:---------------------------|---------------------------|
D:-3------3---3------3---3---|-10-----10--10-----10--10--|
A:-3------3---3------3---3---|-10-----10--10-----10--10--|
D:-3------3---3------3---3---|-10-----10--10-----10--10--|
   I'm  alone     and I'm an   easy target..

 Bridge:

e:------------------------------------------------|
B:------------------------------------------------|
G:------------------------------------------------|    x3
D:-5--5--5--5---5--5--5--5---5--5--5--5---5--7~~--|
A:-5--5--5--5---5--5--5--5---5--5--5--5---5--7~~--|
D:-5--5--5--5---5--5--5--5---5--5--5--5---5--7~~--|
                Did     you     ever    listen?


e:-------------------------------------------------|
B:-------------------------------------------------|
G:-------------------------------------------------|
D:-7--7--7--7---7--7--7--7---7--7--7--7---7--10~~--|     x4
A:-7--7--7--7---7--7--7--7---7--7--7--7---7--10~~--|
D:-7--7--7--7---7--7--7--7---7--7--7--7---7--10~~--|
            Get out!    Get out!      Get out!


"Good Grief"

Intro/Pre-Verse:

e:--------------------------------|------------------------------|
B:--------------------------------|------------------------------|
G:--------------------------------|------------------------------|
D:-------9---7---9---7---7-9---7--|-0-0---9---7---9---7---7-9-7--|
A:-9-9----------------------------|------------------------------|
E:--------------------------------|------------------------------|

e:-------------------------|------------|
B:-------------------------|------------|
G:-6---9~~~--6---9---6-----|------9~~~--|
D:-------------------------|-9----------|
A:-------------------------|------------|
E:-------------------------|------------|

 Verse:

e:------------------------------------|------------------------------------|
B:------------------------------------|------------------------------------|
G:-4-4-4-4--4-4-4-4--4-4-4-4--4-4-4-4-|-7-7-7-7--7-7-7-7--7-7-7-7--7-7-7-7-|
D:-4-4-4-4--4-4-4-4--4-4-4-4--4-4-4-4-|-7-7-7-7--7-7-7-7--7-7-7-7--7-7-7-7-|
A:-2-2-2-2--2-2-2-2--2-2-2-2--2-2-2-2-|-5-5-5-5--5-5-5-5--5-5-5-5--5-5-5-5-|
E:------------------------------------|------------------------------------|
             Since  I'm   good   and   down                       All the


e:------------------------------------|------------------------------------|
B:------------------------------------|------------------------------------|
G:------------------------------------|------------------------------------|
D:-4-4-4-4--4-4-4-4--4-4-4-4--4-4-4-4-|-7-7-7-7--7-7-7-7--7-7-7-7--7-7-7-7-|
A:-4-4-4-4--4-4-4-4--4-4-4-4--4-4-4-4-|-7-7-7-7--7-7-7-7--7-7-7-7--7-7-7-7-|
E:-2-2-2-2--2-2-2-2--2-2-2-2--2-2-2-2-|-5-5-5-5--5-5-5-5--5-5-5-5--5-5-5-5-|
   truth     is    around     but  I    like   it...


Chorus:

e:------------------------------------|-----------------------------------|
B:------------------------------------|-----------------------------------|
G:-2-2-2-2--2-2-2-2-------------------|-------------------2-2-2-2--2-2-2-2|
D:-2-2-2-2--2-2-2-2--2-2-2-2--2-2-2-2-|-4-4-4-4--4-4-4-4--2-2-2-2--2-2-2-2|
A:-0-0-0-0--0-0-0-0--2-2-2-2--2-2-2-2-|-4-4-4-4--4-4-4-4--0-0-0-0--0-0-0-0|
E:-------------------0-0-0-0--0-0-0-0-|-2-2-2-2--2-2-2-2------------------|
       Hate it!          Hate it!           Hate it!          Hate it!


e:------------------------------------|------------------------------------|
B:------------------------------------|------------------------------------|
G:------------------------------------|-2-2-2-2--2-2-2-2-------------------|
D:-2-2-2-2--2-2-2-2--4-4-4-4--4-4-4-4-|-2-2-2-2--2-2-2-2--2-2-2-2--2-2-2-2-|
A:-2-2-2-2--2-2-2-2--4-4-4-4--4-4-4-4-|-0-0-0-0--0-0-0-0--2-2-2-2--2-2-2-2-|
E:-0-0-0-0--0-0-0-0--2-2-2-2--2-2-2-2-|-------------------0-0-0-0--0-0-0-0-|
       Hate it!          Hate it!           Hate it!

Bridge:

e:---------------------------|------------------------------|
B:---------------------------|------------------------------|
G:---------2---2---2---2---2-|---------2---2---2---2---2---4|
D:---------2---2---2---2---2-|---------2---2---2---2---2---4|
A:-2---2---------------------|-2---2------------------------|
E:---------------------------|------------------------------|

e:------------------------------------|------------------|
B:------------------------------------|------------------|
G:-------------------2-2-2-2--2-2-2-2-|------------------|
D:-4-4-4-4--4-4-4-4--2-2-2-2--2-2-2-2-|-2-2-2-2--2-2-2-2-|
A:-4-4-4-4--4-4-4-4--0-0-0-0--0-0-0-0-|-2-2-2-2--2-2-2-2-|
E:-2-2-2-2--2-2-2-2-------------------|-0-0-0-0--0-0-0-0-|

"Floaty"

Intro/Verse:

e:----------------------------------------------------|
B:----------------------------------------------------|
G:-8---8--8---8--8---8---8---8---8--8---8--8---8---8--|
D:-9---9--9---9--9---9---9---9---9--9---9--9---9---9--|
A:-7---7--7---7--7---7---7---7---7--7---7--7---7---7--|
E:-0-------------------------0------------------------|
   He                        floats

e:----------------------------------------------------|
B:----------------------------------------------------|
G:-8---8--8---8--8---8---8---8---8--8---8--8---8---8--|
D:-9---9--9---9--9---9---9---9---9--9---9--9---9---9--|
A:-7---7--7---7--7---7---7---7---7--7---7--7---7---7--|
E:-0-------------------------0------------------------|
   Floats                   away

e:----------------------------------------------------|
B:----------------------------------------------------|
G:-6---6--6---6--6---6---6---6---6--6---6--6---6---6--|
D:-7---7--7---7--7---7---7---7---7--7---7--7---7---7--|
A:-5---5--5---5--5---5---5---5---5--5---5--5---5---5--|
E:----------------------------------------------------|
   On         the            ground          he

e:-----------------------------------------------------|
B:-----------------------------------------------------|
G:-4---4--4---4--4---4---4-----------------------------|
D:-5---5--5---5--5---5---5---5---5--5---5--5---5---5---|
A:-3---3--3---3--3---3---3---5---5--5---5--5---5---5---|
E:---------------------------3---3--3---3--3---3---3---|
   comes         back        down.

Chorus:

  Guitar 1
e:----------------------------------------------|
B:----------------------------------------------|
G:----------------------------------------------|
D:----9---9--9---7---6-------9---9--9---7---6---|
A:----------------------------------------------|
E:0----------------------0----------------------|
                                                |
  Guitar 2                                      |
e:----------------------------------------------|
B:----------------------------------------------|
G:----------------------------------------------|
D:2----------------------2----------------------|
A:2----------------------2----------------------|
E:0----------------------0----------------------|


e:-----------------------------------------------------| 
B:-----------------------------------------------------|
G:-----------------------------------------------------|
D:-6---6--6---6--6---6---6----7---7--7---7--7---7---7--|
A:-6---6--6---6--6---6---6----7---7--7---7--7---7---7--|
E:-4---4--4---4--4---4---4----5---5--5---5--5---5---5--|
   That's not as big as what's float  -  ing...


Then end on this little riff.

e:-------------------------------------|
B:-------------------------------------|
G:-------------------------------------|
D:-2-----------------------------------|
A:-2--------2--2---2----2--2---0-------|
E:-0-------------------------------4---|

Bridge:

e:-------------------------------------------|
B:-------------------------------------------|
G:-4--4--4--4--4--4--4---7-7-7-7-7---4---7---|
D:-4--4--4--4--4--4--4---7-7-7-7-7---4---7---|
A:-2--2--2--2--2--2--2---5-5-5-5-5---2---5---|
E:-------------------------------------------|


e:---------------------------------------------------|
B:---------------------------------------------------|
G:---------------------------------------------------|
D:-6---6--6---6--6---6---6---2---2---2---6---6---6---|
A:-6---6--6---6--6---6---6---2---2---2---6---6---6---|
E:-4---4--4---4--4---4---4---0---0---0---4---4---4---|

Lyrics: 

He floats
Floats away
On the ground
He comes back down.
(Repeat, substituting the he with she, we, and they)

That's not as big as
What's floating here.

"Weenie Beenie"

  Intro/Verse:

e:---------------------------------------------|
B:----------------------------5-6-6-6--5-6-6-6-|
G:-3---3---3---5------5---5--------------------|
D:-3---3---3---5------5---5--------------------|
A:-1---1---1---3------3---3--------------------|
E:-------------3------3---3--------------------|


e:---------------------------------------------|
B:----------------------------5-6-6-6--5-6-6-5-|
G:-3---3---3---5------5---5--------------------|
D:-3---3---3---5------5---5--------------------|
A:-1---1---1---3------3---3--------------------|
E:-------------3------3---3--------------------|

Chorus:

e:-------------------------------------------------|
B:-------------------------------------------------|
G:-------------------------------------------------|
D:-6--6--6--6---6--6--6--6---6--6--6--6---8---8----|
A:-6--6--6--6---6--6--6--6---6--6--6--6---8---8----|
E:-4--4--4--4---4--4--4--4---4--4--4--4---6---6----|
                Move it along..     Move it along..

Bridge:

e:-------------------------------|----------------------------|
B:-------------------------------|----------------------------|
G:-------------------------------|----------------------------|
D:-------------3-----------------|---------1------------------|
A:-------------3-----------------|---------1------------------|
E:-1---2---3-------3---2---1---0-|-1---2----------3---2---1---|
                                      Won't shut my mouth!

"Oh, George"

  Intro/Verse:

e:---------------------------|---------------------------|
B:--------5---5------5-------|--------8----------8-------|
G:---------------------------|-8------8---8------8---8---|
D:-7------7---7------7---7---|-8------8---8------8---8---|
A:-7------7---7------7---7---|-6------6---6------6---6---|
E:-5------5---5------5---5---|---------------------------|


e:--------1---1----------1---|---------------------------|
B:--------1---1----------1---|---------------------------|
G:---------------------------|-5------5---5------5---5---|
D:-3------3---3------3---3---|-5------5---5------5---5---|
A:-3------3---3------3---3---|-3------3---3------3---3---|
E:-1------1---1------1---1---|---------------------------|


e:---------------------------|--------5---5----------5---|
B:--------5---5----------5---|---------------------------|
G:---------------------------|-7------7---7------7---7---|
D:-7------7---7------7---7---|-7------7---7------7---7---|
A:-7------7---7------7---7---|-5------5---5------5---5---|
E:-5------5---5------5---5---|---------------------------|


e:------------------------------------|
B:------------------------------------|
G:------------------------------------|
D:-5------5---5---5---5---5---5---5---|
A:-5------5---5---5---5---5---5---5---|
E:-3------3---3---3---3---3---3---3---|

Chorus:

e:--------1----------1-------|--------0----------0-------|
B:--------1----------1-------|--------0----------0-------|
G:---------------------------|---------------------------|
D:-3------3---3------3---3---|-2------2---2------2---2---|
A:-3------3---3------3---3---|-2------2---2------2---2---|
E:-1------1---1------1---1---|-0------0---0------0---0---|

Solo:

e:--------------------------------------------------------------------------|
B:--------------------------------------------------------------------------|
G:----14--12----------------------------------------------------------------|
D:------------13--12----10-------10/12--------------------------------------|
A:--------------------------------------12--12--12--12--12--12--12--12--10--|
E:--------------------------------------------------------------------------|


e:-----------------------------------------------------------------------|
B:----------------------------13-----13--13--13--13--12------------------|
G:-14-----14--14--14--12---------------------------------12--14------12--|
D:-----------------------------------------------------------------------|
A:-----------------------------------------------------------------------|
E:-----------------------------------------------------------------------|

Repeat this.


e:--------13---------13------13-|--------12---------12------12-|
B:-13---------13---------13-----|-12---------12---------12-----|
G:------------------------------|------------------------------|
D:------------------------------|------------------------------|
A:------------------------------|------------------------------|
E:------------------------------|------------------------------|

Repeat.

e:--------13---------13------13--|-15--15--15--15--15--15--15--15-|
B:-13---------13---------13------|--------------------------------|
G:-------------------------------|--------------------------------|
D:-------------------------------|--------------------------------|
A:-------------------------------|--------------------------------|
E:-------------------------------|--------------------------------|


e:-15\14--14-----14-----14--|
B:--------------------------|
G:--------------------------|
D:--------------------------|
A:--------------------------|
E:--------------------------|

"For All The Cows"

Intro/Verse:

e:-------------------------------------|
B:-------------------------------------|
G:---------------------9-------------9-|
D:------10-----9-------9---------9---9-|
A:------10-----9-----------------7---7-|
E:-8-----------------------------------|
        I'm  called a cow.

e:------------------------------------------------------|
B:------------------------------------------------------|
G:----------------------9-----------------------7--8--9-|
D:------10-----9--------9--------------7--8--9----------|
A:------10-----9--------------7--8--9-------------------|
E:-8----------------------------------------------------|
      And I'm not  about     to       blow it now...

Chorus:

e:-----------------------------------|------------------------------------|
B:-----------------------------------|------------------------------------|
G:-----------------------------------|------------------------------------|
D:-5-----5--5-----5--5-----5--5----5-|-9-----9--9-----9--9-----9--9-----9-|
A:-5-----5--5-----5--5-----5--5----5-|-9-----9--9-----9--9-----9--9-----9-|
E:-3-----3--3-----3--3-----3--3----3-|-7-----7--7-----7--7-----7--7-----7-|
            My       kind     has       all      run   out


Part II

e:---------------------------------------|
B:---------------------------------------|
G:---------------------5--5--5---5--5--5-|
D:-7--7--7---7--7--7---5--5--5---5--5--5-|   x 3
A:-7--7--7---7--7--7---3--3--3---3--3--3-|
E:-5--5--5---5--5--5---------------------|
   Everything  worn   in.... (like it's)

e:----------------------------|
B:----------------------------|
G:----------------------------|
D:-2--2--2---2--2--2---2------|
A:-2--2--2---2--2--2---2------|
E:-0--0--0---0--0--0---0------|
 a friend.



Lyrics:

I'm called a cow
And I'm not about to blow it now
For all the cows.

It's funny how money allows all to browse
and be endowed.

This wish is true.
It falls into pieces new.
The cow is you

My kind has all run out, as if kinds could blend.
Some time if time allows,
Everything worn in, everything worn in,
Everything worn in like it's a friend.

I said you're all a painted doll
And it caused the walls to fall

How far is he?
Impatiently
That's as far as far can be

"X-Static"

Intro/Verse:
  (Guitar 1)

e:-------------------------------|
B:-------------------------------|
G:-8---8---8---8-8---------8---8-|
D:-8---8---8---8-8---------8---8-|
A:-6---6---6---6-6---5/6---6---6-|
E:-------------------------------|

Verse:
  (Guitar 2)

e:---------------------------------------------------------------|
B:---------------------------------------------------------------|
G:---------------------------------------------------------------|
D:-8---8---8---8---8---8----7----6---6---6---6---6---6---6----8--|
A:-8---8---8---8---8---8----7----6---6---6---6---6---6---6----8--|
E:-6---6---6---6---6---6----5----4---4---4---4---4---4---4----6--|


e:---------------------------------------------------------------|
B:---------------------------------------------------------------|
G:---------------------------------------------------------------|
D:-4---4---4---4---4---4----5----6---6---6---6---6---6---6----5--|
A:-4---4---4---4---4---4----5----6---6---6---6---6---6---6----5--|
E:-2---2---2---2---2---2----3----4---4---4---4---4---4---4----3--|


e:----------------------------------------------------------------------|
B:----------------------------------------------------------------------|
G:----------------------------------------------------------------------|
D:-4---4---4---4---4---4---4----6----3---3---3---3---3---3---3---3---3--|
A:-4---4---4---4---4---4---4----6----3---3---3---3---3---3---3---3---3--|
E:-2---2---2---2---2---2---2----4----1---1---1---1---1---1---1---1---1--|


e:------------------------------------|
B:------------------------------------|
G:------------------------------------|
D:-5---5---5---5---5---5---5---5---5--|
A:-5---5---5---5---5---5---5---5---5--|
E:-3---3---3---3---3---3---3---3---3--|

Chorus:

e:---------------------------------------------------------|
B:---------------------------------------------------------|
G:-5---5---5---5---3---3---3-------------------------------|
D:-5---5---5---5---3---3---3---3---3---3---3---3---3---3---|
A:-3---3---3---3---1---1---1---3---3---3---3---3---3---3---|
E:-----------------------------1---1---1---1---1---1---1---|


e:--------------------------------|--------------------|
B:--------------------------------|--------------------|
G:-6---6---6---6---5---5---5---4--|--------------------|
D:-6---6---6---6---5---5---5---4--|--------------------|
A:-4---4---4---4---3---3---3---2--|-2---/4---/6---/8---|
E:--------------------------------|--------------------|

"Watershed"

Intro/Verse:

e:----------------------------------------------|
B:----------------------------------------------|
G:----------------------------------------------|
D:-6/8---8---8---8---8---6/8---8---8---8----9\8-|
A:-6/8---8---8---8---8---6/8---8---8---8----9\8-|
E:-4/6---6---6---6---6---4/6---6---6---6----7\6-|
   Stick  it  to  the  mailman.

Pre-Chorus:

e:--------------------|--------------------|
B:--------------------|--------------------|
G:--------------------|-8----8--8----8--8--|
D:-4----4--4----4--4--|-8----8--8----8--8--|
A:-4----4--4----4--4--|-6----6--6----6--6--|
E:-2----2--2----2--2--|--------------------|
        Take that to the man   you call the

e:--------------------|--------------------|
B:--------------------|--------------------|
G:--------------------|--------------------|
D:-8----8--8----8--3--|--------3-----3-----|
A:-8----8--8----8--3--|--------3-----3-----|
E:-6----6--6----6--1--|--------1-----1-----|
   chair

e:-------------------------|
B:-------------------------|
G:-------------------------|
D:-6--6--6--6--6--6--------|
A:-6--6--6--6--6--6--------|
E:-4--4--4--4--4--4--------|
   Pissin' on a wet wall.

Chorus:

e:-------------------------------------|------------------------------------|
B:-------------------------------------|------------------------------------|
G:-----------9------9------------------|-6------6--9------9-----------------|
D:-6------6--9------9--8----------8--8-|-6------6--9------9--6---------6--6-|
A:-6------6--7------7--8----------8--8-|-4------4--7------7--6---------6--6-|
E:-4------4------------6----------6--6-|---------------------4---------4--4-|
                      Hey there boy you been catchin' the black widow.

e:---------------------------------------|----------|
B:---------------------------------------|----------|
G:-----------9------9--------------------|----------|
D:-6------6--9------9--8------------8--8-|-8--------|
A:-6------6--7------7--8------------8--8-|-6----8---|
E:-4------4------------6------------6--6-|------6---|
         That's what we want you to know.


Bridge:

e:-------------------------------------------------------|
B:-------------------------------------------------------|
G:-------------------------------------------------------|
D:---------------------------------------------------4---|
A:---------------------------------------------------4---|
E:-2---1---1---1---0---1---1---0---1---1---2---------2---|
        I  want to swim in  a water - shed...


Lyrics:

Stick it to the mailman.
Reading is a problem.
See you all suntanned,
only with the Ray Bans

Take that to the man you call the chair.
Pissing on a wet wall

Skinny yellow spit, man
Dealin' with the shit, man
Make it with my bad hand
Just another rock band

Take that to the main they call the chair.
Trouble with the contract
Hey there, boy, you been catchin' the black widow?
That's what we want you to know.

I want to swim in a watershed
I want to listen to crawdads
I lost the counter so bad
I keep on thinking I get ahead, I'm

pissin' on the disc jam
pissin' 'bout the farm hand 
pissing' 'bout the Greek state
miss it and I can't wait

Take that to the man they call the chair.
Trouble with the contract
Hey, man, can you tell a solo brother?
See you were dealt sour

I want to swim in a watershed
I want to listen to crawdads
I lost the counter so bad
I keep on thinking I get ahead, I'm

pissin' on the disc jam
pissin' 'bout the farm hand
pissing' 'bout the Greek state
miss it and I can't wait

" Exhausted"

Intro/Verse:

e:---------1------------|------------------------|
B:--------------3--0--3-|----------6-------0-----|
G:----------------------|--------------7-------7-|
D:-0----0---------------|-5----5-----------------|
A:-0----0---------------|-5----5-----------------|
E:-0----0---------------|-5----5-----------------|
           I'm  not    around that much.     I'm

e:----------0------------|-----------0------------|
B:---------------1-----1-|------------------------|
G:------------------2----|----------------5-----5-|
D:-3----3----------------|-7----7------------7----|
A:-3----3----------------|-7----7-----------------|
E:-3----3----------------|-7----7-----------------| 
  near                   exhausted

e:----------0------------|-----------0------------|
B:---------------1-----1-|------------------------|
G:------------------2----|----------------5-----5-|
D:-----------------------|-7----7------------7----|
A:-3----3----------------|-7----7-----------------|
E:-3----3----------------|------------------------|
                      and lost.
Pre-Chorus:

e:-------------------------------------|-----------------------|
B:-------------------------------------|-----------------------|
G:-------------------------------------|-----------------------|
D:-8-8-8-8--8-8-8-8---7-7-7-7--7-7-7-7-|-5-----5---5---5---5---|
A:-8-8-8-8--8-8-8-8---7-7-7-7--7-7-7-7-|-5-----5---5---5---5---|
E:-8-8-8-8--8-8-8-8---7-7-7-7--7-7-7-7-|-5-----5---5---5---5---|
                      ... and alone ...

Riff 2 (Chorus?)

e:------------------------------------------------------------|
B:------------------------------------------------------------|
G:------------------------------------------------------------|
D:------------------------------------------------------------|
A:-0---3---5---7---3---0---3---0---3---0----------------------|
E:-0---3---5---7---3---0---3---0---3---0----4---5---7^~~~~--7-|

Lyrics:

I'm not around that much.
I'm near exhausted and lost.
If it could be undone,
Will it have cost it?
It's torn and alone

Knowing the way we strain
And tear, exhausted, and fall.
What if today I'd stayed in bed,
And was bored?  Oh, we've gone
And fall.

After bliss is gone in bed,
Use caution.  It's gone.
Even the breeze that's flowing.
There is caustic.  And I talked.
And I missed it.