Foo Fighters-Hey, Johnny Park!

-1- means guitar 1 (rhythm), -2- for guitar 2 (lead)
-1- and -2- are to be played simultaneously 
if theres no -2- in a part, just double the rhythm guitar
both in drop D

-=intro=-
-1- 
e|------------------------------0--------------------------
B|------------------------------0--------------------------
G|-4-4-4----2-2-2---------------x--------------------------
D|-4-4-4----2-2-2---2--2-2--2---2---2-4-5-5----0-0-2-2-2-2-
A|-2-2-2----0-0-0---2--2-2--2---2---2-4-5-5----0-0-2-2-2-2-
D|------------------2--2-2--2-------2-4-5-5----0-0-2-2-2-2-
-2-  
e|---------------------------------------------------------
B|-------3p2-----3p2---------------------------------------
G|-4-4-4----2-2-2------------------------------------------
D|------------------2--2-2---2-----------------------------
A|------------------2--2-2---2-----------------------------
D|-----------------------------------------12\0--0/12------

-1- 
e|------------------------------0--------------------------
B|------------------------------0--------------------------
G|-4-4-4----2-2-2---------------x--------------------------
D|-4-4-4----2-2-2---2--2-2--2---2---2-4-5-5----0-0-0-0-0-0-
A|-2-2-2----0-0-0---2--2-2--2---2---2-4-5-5----0-0-0-0-0-0-
D|------------------2--2-2--2-------2-4-5-5----0-0-0-0-0-0-
-2-  
e|--------------------------------------------------------
B|-------3p2-----3p2----------2h3-------------------------
G|-4-4-4----2-2-2---------2h4-----------------------------
D|--------------------2h4---------2--------------0-0-0-0--
A|-----------------------------------------------0-0-0-0--
D|-----------------------------------------12\0--0-0-0-0--

-=verse=-
-1-
e|-------2--2-2-2-2---------0-0--0--0-0-------2--2-2-2-2--
B|-------3--3-3-3-3-------3-3-3--3--3-3-------3--3-3-3-3--
G|-------4--4-4-4-4-------2-2-2--2--0h2-------4--4-4-4-4--
D|-------4--4-4-4-4---0-0---------------------4--4-4-4-4--
A|-2-2------------------------------------2-2-------------
D|--------------------------------------------------------

-1-
e|--------0-0--0--0--3p2-0-----2-2-2-2-2---0-0-0-0-0-0----
B|------3-3-3--3--3------------3-3-3-3-3---3-3-3-2-2-2----
G|------2-2-2--2--2------------4-4-4-4-4---2-2-2-2-2-2----
D|-0-0-------------------------4-4-4-4-4---2-2-2-2-2-2----
A|-------------------------2-2-----------0-0-0-0-0-0-0----
D|--------------------------------------------------------

-1-
e|-------0---0---0-0-0-0--0--0----------------------------
B|-------0---0---0-0-0-0--0--0----------------------------
G|-x--x--x---x---x-x-x-x--x--x----------------------------
D|-2--2--2---2---2-2-2-2--2--2----------------------------
A|-2--2--2---2---2-2-2-2--2--2----------------------------
D|-2--2--2---2---2-2-2-2--2--2----------------------------

-1- *distortion kicks on*
e|--------------------------------------------------------
B|--------------------------------------------------------
G|--------------------------------------------------------
D|-2--4-5-5--x-x--5-5-5-5-5--0-0--x-x-0-0-0-0-4-5-5-------
A|-2--4-5-5--x-x--5-5-5-5-5--0-0--x-x-0-0-0-0-4-5-5-------
D|-2--4-5-5--x-x--5-5-5-5-5--0-0--x-x-0-0-0-0-4-5-5-------
repeat a few times and end on open bottom three strings then..

-=bridge=-
-1-
e|--------------------------------------------------------
B|--------------------------------------------------------
G|-5-5-5-5----4-4-4-4-------------------------------------
D|-5-5-5-5----4-4-4-4----3-3-3-3---0--0--0-----0----------
A|-3-3-3-3----2-2-2-2----3-3-3-3---0--0--0-----0----------
D|-----------------------3-3-3-3---0--0--0-----0----------
-2-
e|--------------------------------------------------------
B|--------------------------------------------------------
G|-5-5-5-5----4-4-4-4--------------11-11-11/12\11---------
D|-5-5-5-5----4-4-4-4----3-3-3-3--------------------------
A|-3-3-3-3----2-2-2-2----3-3-3-3---9--9--9/-10-\9---------
D|-----------------------3-3-3-3--------------------------