Foo Fighters-Learn To Fly

Bsus4		x24400
F#m7add11	2x4200
E5		022400
Bsus2		x24422
G		320033
Asus4		x02230
A		x02220
E		022100
D/F#		2x023x

Intro:
   Bsus4		 F#m7add11			E5
Gtr 1
E|---------------|----------------------|-------------------|----------------------|
B|---------------|----------------------|-------------------|----------------------|
G|-4--4-4--4-4-4-|-4/-6--6--6---6b---6--|-6\-4-4-4--4--4--4-|---4--4--4----4--4----|
D|-x--x-x--x-x-x-|-x-----x--x---x----x--|-x----x-x--x--x--x-|---x--x--x----x--x----|
A|-2--2-2--2-2-2-|-2/-4--4--4---4b---4--|-4\-2-2-2--2--2--2-|---2--2--2----2--2----|
E|---------------|----------------------|-------------------|----------------------|
Gtr 2														    play twice
E|-0--0-0--0-0-0-|----------0--0-----0--|-------0--0-----0--|--0-----0----0--0--0--|
B|-0--0-0--0-0-0-|----------0--0-----0--|-------0--0-----0--|--0-----0----0--0--0--|
G|-4--4-4--4-4-4-|-------2--------------|-------4--4-----4--|--4-----4----4--4--4--|
D|-4--4-4--4-4-4-|----4-----------------|-------2--2-----2--|--2-----2----2--2--2--|
A|-2--2-2--2-2-2-|----------------------|-2--2--------2-----|-----2----------------|
E|---------------|-2--------------2-----|-0--0--------0-----|-----0----------------|

Verse:
Bsus2				F#m7add11 
Run and tell all of the angels,
E5
This could take all night
Bsus2			            F#m7add11		 E5 
Thinkin' it in time oughta to help me get things right 

w/verse
Hook me up a new revolution,
Cause this one is a lie 
I sat around laughing and watched the last one die
 
Chorus: 
    Bsus4			 F#m7add11
Iím lookin to the sky to save me 
E5
Lookin for a sign of life 
    Bsus4			    F#m7add11        E5
Iím lookin for somethiní to help me burn out bright
    Bsus4              F#m7add11 
Iím lookin for a complication, 
E5
Lookin Ďcause Iím tired of lyiní 
G                Asus4       A
Make my way back home when I learn to fly.

Play intro 

w/verse 
I think Iím dyiní missing patience, 
It can wait one night 
Give it all away if you give me one last try 

w/verse
Weíll live happily ever trapped 
If you just save my life 
Run and tell the angels and every things all right 

w/chorus 
Iím lookin to the sky to save me 
Lookin for a sign of life 
Iím lookin for somethiní to help me burn out bright 
Iím lookin for a complication, 
Lookin Ďcause Iím tired of tryiní 
G                Asus4       A        E   
Make my way back home when I learn to fly.
G                Asus4       A
Make my way back home when I learn to

Bridge:
Bsus4 G               D                   E     D/F#     
Fly   along with me I canít quite make it alone 
G                Asus4   A
Try to make this life my own 
Bsus4 G              D                   E      D/F#
Fly   home with me I canít quite make it alone 
G                Asus4   A
Try to make this life my own

Chorus
Iím lookin to the sky to save me 
Lookin for a sign of life 
Lookin for somethiní to help me burn out bright
Iím lookin for a complication, 
Lookin Ďcause Iím tired of tryiní 
G5               A
Make my way back home when I learn to

w/chorus
Lookin to the sky to save me 
Lookin for a sign of life 
Lookin for somethiní to help me burn out bright 
Iím lookin for a complication, 
Lookin Ďcause Iím tired of tryiní 
G5               A                    E5
Make my way back home when I learn to fly
G5               A                    E5
Make my way back home when I learn to fly
G5               A                 Bsus2
Make my way back home when I learn to.

Outro
    Bsus2
Gtr 1
|------------2----------|-----------2---------||----------------|------------||
|------------2----------|-----------2---------||----------------|------------||
|*-----4----------------|-----4--------------*||--4--------6----|------------||
|*--------4-------------|--------4-----------*||--4--------4----|------------||
|---2-------------------|--2------------------||--2-------------|------------||
|-----------------------|---------------------||-------0--------|------------||
Gtr 2
|------------2----------|-----------2---------||-----------2----|------------||
|------4---------2------|-----4----------2----||-------4---4----|------------||
|*--4-----4-------------|--4-----4-----------*||--4----4---4----|------------||
|*----------------------|--------------------*||--4----2--------|------------||
|-----------------------|---------------------||--2-------------|------------||
|-----------------------|---------------------||----------------|------------||

http://www.sparkystabs.co.uk