Foo Fighters-Monkey Wrench

drop D tuning

-=main lead riff=-
e|--------------------------------------------------------
B|-7-7-5-5-4-4-----5-5-4-4--------------------------------
G|-------------6-6---------6-6-4-4-6-6-4-4-----4-4-6-6----
D|-----------------------------------------6-6------------
A|--------------------------------------------------------
D|--------------------------------------------------------

e|--------------------------------------------------------
B|--------------------------------------------------------
G|--------------------------------------------------------
D|-4-4--6b1/2-6-4-----------------------------------------
A|--------------------------------------------------------
D|--------------------------------------------------------

-=verse=-
e|--------------------------------------------------------
B|--------------------------------------------------------
G|-4--4-4-4-4-4-4-4-4-4-----------------------------------
D|-4--4-4-4-4-4-4-4-4-4--4-4-4-4-2-2-2-2-2-2-2-2-2-2-2-2--
A|-2--2-2-2-2-2-2-2-2-2--4-4-4-4-2-2-2-2-2-2-2-2-2-2-2-2--
D|-----------------------4-4-4-4-2-2-2-2-2-2-2-2-2-2-2-2--
     |palm-muting---------------------------------------|

e|--------------------------------------------------------
B|--------------------------------------------------------
G|--------------------------------------------------------
D|-0-2-0-2-0----------------------------------------------
A|-0-2-0-2-0----------------------------------------------
D|-0-2-0-2-0----------------------------------------------

-=bridge part before chorus=-
e|--------------------------------------------------------
B|--------------------------------------------------------
G|--------------------------------------------------------
D|-2--2-2-0--2--2-2-0-2-0-2-0-----------------------------
A|-2--2-2-0--2--2-2-0-2-0-2-0-----------------------------
D|-2--2-2-0--2--2-2-0-2-0-2-0-----------------------------

-=chorus=-
e|--------------------------------------------------------
B|--------------------------------------------------------
G|-4--4-4-4---------------------------5-------------------
D|-4--4-4-4--6--6-6--6-6-4-2---4-2-4--5-------------------
A|-2--2-2-2--6--6-6--6-6-4-2---4-2-4--3-------------------
D|-----------6--6-6--6-6-4-2---4-2-4----------------------

-=2nd bridge=-
e|--------------------------------------------------------
B|--------------------------------------------------------
G|----9--4------------------------------------------------
D|-6--9--4-5-5-5--5-5-5-4-2-2-2-2-2--2-2-2-2-2------------
A|-6--7--2-5-5-5--5-5-5-4-2-2-2-2-2--2-2-2-2-2------------
D|-6-------5-5-5--5-5-5-4-2-2-2-2-2--2-2-2-2-2------------

Verse 1
What have we done with innocence 
It disappeared with time, it never made much sense 
Adolescent resident 
Wasting another night on planning my revenge 

Bridge
One in ten 

Chorus
Don't want to be your monkey wrench 
One more indecent accident 
I'd rather leave than suffer this 
I'll never be your monkey wrench 

Verse 2
All this time to make amends 
What do you do when all your enemies are friends 
Now and then I'll try to bend 
Under pressure wind up snapping in the end 

Bridge

Chorus

One last thing before I quit 
I never wanted any more than I could fit 
Into my head I still remember every single word 
You said and all the shit that somehow came along with it 
Still there's one thing that comforts me since 
I was Always caged and now I'm free 

Chorus

Don't want to be your monkey wrench (fall in, fall out) 
Don't want to be your monkey wrench (fall in, fall out) 
Don't want to be your monkey wrench (fall in, fall out) 
Don't want to be your monkey wrench