Foo Fighters-My Hero

   while the bass plays the opening float in this lil riff
e|------0---0-0--0--0----0--0--0--------------------------
B|------4---4h5--4----0--0--0--0--------------------------
G|--------------------------------------------------------
D|--------------------------------------------------------
A|--------------------------------------------------------
E|--------------------------------------------------------
   then repeat A while having a second guitar (lead) play B
(A)
e|--------------------------------------------------------
B|--------------------------------------------------------
G|--------------------6-6-6-6-6-6-6-6-6-6-----------------
D|---2-2-2-2-2-2------6-6-6-6-6-6-6-6-6-6-----------------
A|---2-2-2-2-2-2------4-4-4-4-4-4-4-4-4-4-----------------
E|---0-0-0-0-0-0------------------------------------------
(B)
e|---0-0-0-0-0-0------0-0-0-0-0-0-0-0-0-0-----------------
B|---4-5-5-5-5-5------4-4-7-4-4-4-7-4-4-5-----------------
G|--------------------------------------------------------
D|--------------------------------------------------------
A|--------------------------------------------------------
E|--------------------------------------------------------

then play this part just before the lyrics come in..
e|--------------------------------------------------------
B|--------------------------------------------------------
G|--------------------------------------------------------
D|--------------------------------------------------------
A|-------4-2----------------------------------------------
E|--2--2------4--5----------------------------------------
 
and now the chorus: 
e|--------------------------------------------------------
B|--------------------------------------------------------
G|-------8-8-8-8-----9-9-9-9----11-11-11-11---------------
D|--7-----------------------------------------------------
A|--7----6-6-6-6-----7-7-7-7----9--9--9--9----------------
E|--5-----------------------------------------------------

e|--------------------------------------------------------
B|--------------------------------------------------------
G|-------8-8-8-8----9-9-9-9---6-6-6-6---------------------
D|--7-----------------------------------------------------
A|--7----6-6-6-6----7-7-7-7---4-4-4-4---------------------
E|--5-----------------------------------------------------

e|--------------------------------------------------------
B|--------------------------------------------------------
G|-------8-8-8-8-----9-9-9-9----10-10-10-10---------------
D|--2-----------------------------------------------------
A|--2----6-6-6-6-----7-7-7-7----9--9--9--9----------------
E|--0-----------------------------------------------------

e|--------------------------------------------------------
B|--------------------------------------------------------
G|-------8-8-8-8----9-9-9-9---6-6-6-6---------------------
D|--2-----------------------------------------------------
A|--2----6-6-6-6----7-7-7-7---4-4-4-4---------------------
E|--0-----------------------------------------------------
  then play preceding riff again.