Foo Fighters-My Poor Brain

drop-d tuning AND everything else is tuned down

two guitars -1- signifies guitar 1.. -2- is obviously guitar 2

-=verse=- (where dave sings in falsetto voice)
-1- 
eb|--10--10--10---10---10----10----10---10---10---10---10--
Bb|--------------------------------------------------------
Gb|--7---7---7----7----7-----7-----7----7----7----7----7---
Db|--------------------------------------------------------
Ab|--------------------------------------------------------
C |--------------------------------------------------------
-2-
eb|--------------------------------------------------------
Bb|--10--10--10---12---12--12--12--12--13-13-13-13-12-12---
Gb|--------------------------------------------------------
Db|--------------------------------------------------------
Ab|--------------------------------------------------------
C |--------------------------------------------------------

-=prechorus=-
eb|--------------------------------------------------------
Bb|--------------------------------------------------------
Gb|-7-7-7-7-7-------------5-5-5-5-5----10-9----------------
Db|-7-7-7-7-7-----5--5----5-5-5-5-5----10-9----------------
Ab|-5-5-5-5-5-----5--5----3-3-3-3-3----8--7----------------
C |---------------5--5-------------------------------------

eb|--------------------------------------------------------
Bb|--------------------------------------------------------
Gb|-7-7-7-7-7-------------5-5-5-5-5------------------------
Db|-7-7-7-7-7-----5--5----5-5-5-5-5--6--5--3---------------
Ab|-5-5-5-5-5-----5--5----3-3-3-3-3--6--5--3---------------
C |---------------5--5---------------6--5--3---------------

-=chorus=- (2nd guitar does octave riff from verse)
eb|--------------------------------------------------------
Bb|--------------------------------------------------------
Gb|--------------------------------------------------------
Db|---7--7--7--7--7----10-10--10-10--10--10----------------
Ab|---7--7--7--7--7----10-10--10-10--10--10----------------
C |---7--7--7--7--7----10-10--10-10--10--10----------------

eb|--------------------------|-----------------------------
Bb|--------------------------s-----------------------------
Gb|--------------------------t-----------------------------
Db|-0--0----10--0--0--10--0--o--0--0--10--0--0----------10-
Ab|-0--0--------0--0------0--p--0--0------0--0--10--12-----
C |-0--0--------0--0------0--|--0--0------0--0-------------