Foo Fighters-Oh George

Intro/Verse:
e:---------------------------|---------------------------|
B:--------5---5------5-------|--------8----------8-------|
G:---------------------------|-8------8---8------8---8---|
D:-7------7---7------7---7---|-8------8---8------8---8---|
A:-7------7---7------7---7---|-6------6---6------6---6---|
E:-5------5---5------5---5---|---------------------------|

e:--------1---1----------1---|---------------------------|
B:--------1---1----------1---|---------------------------|
G:---------------------------|-5------5---5------5---5---|
D:-3------3---3------3---3---|-5------5---5------5---5---|
A:-3------3---3------3---3---|-3------3---3------3---3---|
E:-1------1---1------1---1---|---------------------------|

e:---------------------------|--------5---5----------5---|
B:--------5---5----------5---|---------------------------|
G:---------------------------|-7------7---7------7---7---|
D:-7------7---7------7---7---|-7------7---7------7---7---|
A:-7------7---7------7---7---|-5------5---5------5---5---|
E:-5------5---5------5---5---|---------------------------|

e:------------------------------------|
B:------------------------------------|
G:------------------------------------|
D:-5------5---5---5---5---5---5---5---|
A:-5------5---5---5---5---5---5---5---|
E:-3------3---3---3---3---3---3---3---|

Chorus:
e:--------1----------1-------|--------0----------0-------|
B:--------1----------1-------|--------0----------0-------|
G:---------------------------|---------------------------|
D:-3------3---3------3---3---|-2------2---2------2---2---|
A:-3------3---3------3---3---|-2------2---2------2---2---|
E:-1------1---1------1---1---|-0------0---0------0---0---|

Solo:
e:--------------------------------------------------------------------------|
B:--------------------------------------------------------------------------|
G:----14--12----------------------------------------------------------------|
D:------------13--12----10-------10/12--------------------------------------|
A:--------------------------------------12--12--12--12--12--12--12--12--10--|
E:--------------------------------------------------------------------------|

e:-----------------------------------------------------------------------|
B:----------------------------13-----13--13--13--13--12------------------|
G:-14-----14--14--14--12---------------------------------12--14------12--|
D:-----------------------------------------------------------------------|
A:-----------------------------------------------------------------------|
E:-----------------------------------------------------------------------|
Repeat this.

e:--------13---------13------13-|--------12---------12------12-|
B:-13---------13---------13-----|-12---------12---------12-----|
G:------------------------------|------------------------------|
D:------------------------------|------------------------------|
A:------------------------------|------------------------------|
E:------------------------------|------------------------------|
Repeat.

e:--------13---------13------13--|-15--15--15--15--15--15--15--15-|
B:-13---------13---------13------|--------------------------------|
G:-------------------------------|--------------------------------|
D:-------------------------------|--------------------------------|
A:-------------------------------|--------------------------------|
E:-------------------------------|--------------------------------|

e:-15\14--14-----14-----14--|
B:--------------------------|
G:--------------------------|
D:--------------------------|
A:--------------------------|
E:--------------------------|

The train that I got onto up and left that town
Threw it up as it went down
Strange enough it left me rude and turned around
Watched as they all took their vows 
Fools were drawing trying to save that day
I don't doubt that anyway 
Phase it out until the older ones return
Have a seat and watch it burn
Trace around the corner this is what I've learned
Always waited for my turn