Foo Fighters-The One

Intro
e-|-------------|-------|
B-|-------------|-3--4--|
G-|-------------|-5b-6b-| x3
D-|-7/7-7-7-7-7-|-------|
A-|-7/7-7-7-7-7-|-------|
E-|-4/5-5-5-5-5-|-------|

e-|-------------|-3-----| 
B-|-------------|-5b-3--| 
G-|-------------|----5b-|
D-|-7/7-7-7-7-7-|-------| 
A-|-7/7-7-7-7-7-|-------| 
E-|-4/5-5-5-5-5-|-------| 

Verse
A              G#
Everyone makes one mistake
G                 F#
One more time for old time's sake
F               E                D 
One more time before the feeling fades
 
One that's born of memories 
One more bruise you gave to me 
One more test just how much can I take 

Pre-Chorus
D D#
e-|------|
B-|------| play D 6 times, then
G-|-7--8-| quickly play D# 6 times
D-|-7--8-|
A-|-5--6-|
E-|------|

Chorus
A D C F G
e-|---------------|
B-|---------------|
G-|----7--5-------|
D-|-7--7--5--3--5-|
A-|-7--5--3--3--5-|
E-|-5--------1--3-|

A 
'Cause you're not the one
D 
But you're the only one
C F G
Who can make me feel like this

Intro

Verse
Something never meant to be 
Everything you meant to me 
Wake me when this punishment is done 
Those who try and get away 
From the one who gets away 
Someone's always someone else's one 

Chorus x2

Bridge
D D# F 
Until the end of time
G
In another life
D 
'Til the day I die
F 
Save it up for one more try
G 
Save it for the last goodbye

x3
D-|-------------|-------------|
A-|-5h7-7-7-7-7-|-7p6p5-3p2p0-|
E-|-------------|-------------|
We go on, Get off
Get on, Get off

x3
e-|-------------|
B-|-------------|
G-|-8/9-9-9-9-9-| one octave up
D-|-6/7-7-7-7-7-| from Intro
A-|-------------|
E-|-------------|

Chorus til end