This Is A Call - Foo Fighters 

Normal tuning 

Verse 1: 
E 
Visiting is pretty, visiting is good 
              G                     A   E          G    
Seems that all they ever wanted was a brother 
E 
This can be a secret, we can keep it good 
        G                     A     E 
Even all the ever wanting had a problem 
  
Pre-Chorus: 
F#5       A 
This is a call to all my 
E         F#5 
Past resignations 
A         E               G
This is a call to all 
  
Verse 2: 
E 
Fingernails are pretty, fingernails are good 
              G                     A         E     G5 
Seems that all they ever wanted was a marking 
E 
Them baloons are pretty, big and say they should 
         G                        A    E 
Ever fall to ground, call the magic marker 
  
Chorus: 
F#5           A 
This is a call to all my 
E          F#5 
Past resignations 
A             E 
This is a call to all 
F#5           A 
This is a call to all my 
E          F#5 
Past resignations 
A 
It's been to long 
  
Interlude: 
|------------------------------------| 
|------------------------------------| 
|--------7---------------------------| 
|--------6-----------4--7---5--5--5--|  
|--------7--0--5--7--2--5---5--5--5--| 
|--0--0-----0--3--5---------3--3--3--| 

Verse 3: 
E 
Medicyn is pretty, Minicyn is good 
              G                            A             E     G5 
Seems that all the cysts and mollusks tend to barter 
E 
Ritalin is easy, Ritalin is good 
        G                          A      E 
Even all the one who watered down the daughter 
  
Chorus 
  
Interlude 
  
Verse 4: 
E 
Fingernails are pretty, fingernails are good 
              G                     A         E     G5 
Seems that all they ever wanted was a marking 
E 
Them baloons are pretty, big and say they should 
         G                        A    E 
Ever fall to ground, call the magic marker 

Chorus: 
F#5           A 
This is a call to all my 
E           F#5 
Past resignations 
A             A       F5 
This is a call to all 
F#5           A 
This is a call to all my 
E            F#5 
Past resignations 
A 
It's been to long 

Interlude: 
|------------------------------------| 
|------------------------------------| 
|--------7---------------------------| 
|--------6-----------4--7---5--5--5--| X8 
|--------7--0--5--7--2--5---5--5--5--| 
|--0--0-----0--3--5---------3--3--3--| 
  
Outro: 
Gtr 1: 
|------------------------------------------------     --------------------| 
|------------------------------------------------     -----------------3--| 
|------------------------------------------------     -----------------0--| 
|------------------------------------------------ X3  -----------------0--| 
|--------5--------5--4--5--------5--------5--4--5     --------5--------X--| 
|--0--0-----0--0-----------0--0-----0--0---------     --0--0-----0--0--3--| 

Gtr 2: (rests 1st time) 
|--------------------------------------------------     ---------------------| 
|--------------------------------------------------     ------------------3--| 
|--------------------------------------------------     ------------------0--| 
|-------------------------------------------------- X2  ------------------0--| 
|--------11-------11-10-11--------11-------11-10-11     --------11--------X--| 
|--0--0-----0--0------------0--0-----0--0----------     --0--0------0--0--3--| 

Gtr 1&2: 
|-------| 
|-------| 
|-------| 
|--2-2--| 
|--2-2--| 
|--0-0--|