Foo Fighters-Walking After You

chords:
           E    E/G#   A Bbmb5 B7add11 F#7add11 C#m
e----------0------0----0----0-------0-----0-----4-------------
B----------0------5----2----2-------0-----0-----5-------------
G----------1------4----2----3-------2-----3-----6-------------
D----------2------2----2----2-------1-----4-----6-------------
A----------2------x----0----1-------2-----4-----4-------------
E----------0------4----x----x-------x-----2-----x-------------

Intro (Guitar 1) 
     E            E           E            E
Intro (Guitar 2)
e---------------------0---2---4---0---5---4---2---0---5-------
B-----------------------0---0---0---0---0---0---0---0---------
G---------------------1---2---4---1---6---4---2---1---6-------
D-------------------------------------------------------------
A-------------------------------------------------------------
E-------------------------------------------------------------

Verse
E           E/G#         A               Bbmb5     A
Tonight im tangled in my blanket of clouds
B7
Dreaming aloud
E               E/G#            A             Bbmb5       A
Things just wont do without you matter of fact
B7
Im on your back
E               E/G#            A             Bbmb5       A
Im on your back
B7
Im on your back

E & Guitar 2 Riff

Chorus
F#7add11             A                  E          
If you walk out on me, Im walking after you   x2

Verse 2
If you'd accept surrender, give up some more,
Weren't you adored?
I cannot be without you matter of fact,
I'm on your back    x3

Chorus

Post Chorus
        C#m              A
Another heart is cracked in two
           F#7add11
Im on your back

E C#m A F#7add11

Verse 3
I cannot be without you matter of fact,
I'm on your back

Chorus
F#7add11             A                  E          
If you walk out on me, Im walking after you   x3

Then play post chorus