Foo Fighters-Wattershed

Intro/Verse:
e:----------------------------------------------|
B:----------------------------------------------|
G:----------------------------------------------|
D:-6/8---8---8---8---8---6/8---8---8---8----9\8-|
A:-6/8---8---8---8---8---6/8---8---8---8----9\8-|
E:-4/6---6---6---6---6---4/6---6---6---6----7\6-|
   Stick  it  to  the  mail - man.
                                           
Pre-Chorus:
e:--------------------|--------------------|
B:--------------------|--------------------|
G:--------------------|-8----8--8----8--8--|
D:-4----4--4----4--4--|-8----8--8----8--8--|
A:-4----4--4----4--4--|-6----6--6----6--6--|
E:-2----2--2----2--2--|--------------------|
        Take that to the man   you call the

e:--------------------|--------------------|
B:--------------------|--------------------|
G:--------------------|--------------------|
D:-8----8--8----8--3--|--------3-----3-----|
A:-8----8--8----8--3--|--------3-----3-----|
E:-6----6--6----6--1--|--------1-----1-----|
   chair

e:-------------------------|
B:-------------------------|
G:-------------------------|
D:-6--6--6--6--6--6--------|
A:-6--6--6--6--6--6--------|
E:-4--4--4--4--4--4--------|
   Pissin' on a wet wall.
  
Chorus:
e:-------------------------------------|------------------------------------|
B:-------------------------------------|------------------------------------|
G:-----------9------9------------------|-6------6--9------9-----------------|
D:-6------6--9------9--8----------8--8-|-6------6--9------9--6---------6--6-|
A:-6------6--7------7--8----------8--8-|-4------4--7------7--6---------6--6-|
E:-4------4------------6----------6--6-|---------------------4---------4--4-|
                      Hey there boy you been catchin' the black widow.

e:---------------------------------------|----------|
B:---------------------------------------|----------|
G:-----------9------9--------------------|----------|
D:-6------6--9------9--8------------8--8-|-8--------|
A:-6------6--7------7--8------------8--8-|-6----8---|
E:-4------4------------6------------6--6-|------6---|
         That's what we want you to know.

Bridge:
e:-------------------------------------------------------|
B:-------------------------------------------------------|
G:-------------------------------------------------------|
D:---------------------------------------------------4---|
A:---------------------------------------------------4---|
E:-2---1---1---1---0---1---1---0---1---1---2---------2---|
        I  want to swim in  a water - shed...

I stick it to the mailman
I'm pinned against a pot plant
I'm sick of all the sun-tan
Oily with the ray-ban 

Take that to the bank and call it a check
Masked without a weapon 

I'm skinny as a spit pan
Dealing with the shit plan
Playing with my bad hand
Just another rock band 

Take that to the man and call it a check
Trapped within a contract
 
Hey there boy while you were catching the black widow
The rest of us were watching melrose 

I wanna swim in the wattershed
I wanna listen to the flowerhead
I lost a gallon and still I bled
I keep on thinking I get ahead 

Pissed at all the disc jam
Pissed about the 5-ham
Pissed about the green state
I miss it and I can't wait

Hey man can't you tell it's still a problem?
See you at the devil's tower