Foo Fighters-Weenie Beenie

Intro/Verse:
e:---------------------------------------------|
B:----------------------------5-6-6-6--5-6-6-6-|
G:-3---3---3---5------5---5--------------------|
D:-3---3---3---5------5---5--------------------|
A:-1---1---1---3------3---3--------------------|
E:-------------3------3---3--------------------|

e:---------------------------------------------|
B:----------------------------5-6-6-6--5-6-6-5-|
G:-3---3---3---5------5---5--------------------|
D:-3---3---3---5------5---5--------------------|
A:-1---1---1---3------3---3--------------------|
E:-------------3------3---3--------------------|

Chorus:
e:-------------------------------------------------|
B:-------------------------------------------------|
G:-------------------------------------------------|
D:-6--6--6--6---6--6--6--6---6--6--6--6---8---8----|
A:-6--6--6--6---6--6--6--6---6--6--6--6---8---8----|
E:-4--4--4--4---4--4--4--4---4--4--4--4---6---6----|
                Move it along..     Move it along..

Bridge:
e:-------------------------------|----------------------------|
B:-------------------------------|----------------------------|
G:-------------------------------|----------------------------|
D:-------------3-----------------|---------1------------------|
A:-------------3-----------------|---------1------------------|
E:-1---2---3-------3---2---1---0-|-1---2----------3---2---1---|
                                      Won't shut my mouth

I'm molasses hung in rent
Read a sponsor one shot no post-show
Tear it off, but not a lot, it's not enough to debate
As if you blame real and stagnate
Big shit no shit
Tear it off, but not a lot, only so much you can take
Some try that hit
Beast and mud lead
Big shit no shit
Tear it off, but not a lot, only so much you can take
Tear it off, but not a lot, it's not enough to debate
Big shit no duh
Right?
One shot nothing