I Think I`m Paranoid

Intro
E||-------------------------------|-----------------------------||
B||---------12------10------------|----------------------10-----||
G||*--12--------12--------10------|------12--------10----------*||
D||*--------------------------10/-|--12--------12--------------*||
A||-------------------------------|-----------------------------||
E||-------------------------------|-----------------------------||

Verse
   G             F                G             F            
|-------------------------------|-----------------------------|
|---------12------10------------|----------------------10-----|
|---12--------12--------10------|------12--------10-----------|
|---------------------------10/-|--12--------12---------------|
|-------------------------------|-----------------------------|
|-------------------------------|-----------------------------|
 You can look, but               you can't touch

|-------------------------------|-----------------------------|
|---------12------10------------|----------------------10-----|
|---12--------12--------10------|------12--------10-----------|
|---------------------------10/-|--12--------12---------------|
|-------------------------------|-----------------------------|
|-------------------------------|-----------------------------|
 I don't think I                 like you much

|-------------------------------|-----------------------------|
|---------12------10------------|----------------------10-----|
|---12--------12--------10------|------12--------10-----------|
|---------------------------10/-|--12--------12---------------|
|-------------------------------|-----------------------------|
|-------------------------------|-----------------------------|
 Heaven knows what a             girl can do

(pause)
 Heaven know what you've got to prove

           G          F           Eb         C
        |-----------------------|-----------------------|
        |-----------------------|-----------------------|
        |-----------------------|-----------------------|
        |-----------------------|-----------------------|
        |---5------5--3------3--|--6------6--3------3---|
        |---3------3--1------1--|--6------6\-3------3---|
I think I'm paranoid

        |-----------------------|-----------------------|
        |-----------------------|-----------------------|
        |-----------------------|-----------------------|
        |-----------------------|-----------------------|
        |---5------5--3------3--|--6------6--3------3---|
        |---3------3--1------1--|--6------6\-3------3---|
And complicated

        |-----------------------|-----------------------|
        |-----------------------|-----------------------|
        |-----------------------|-----------------------|
        |-----------------------|-----------------------|
        |---5------5--3------3--|--6------6--3------3---|
        |---3------3--1------1--|--6------6\-3------3---|
I think I'm paranoid                

     |----------------------|----------------------------|--------------------------|
     |----------------------|--------------11------------|----11--------------11----|
     |----------------------|--------14--------------14--|--------------14----------|
     |----------------------|--13----------------13------|----------13--------------|
     |--5------5--3------3--|----------------------------|--------------------------|
     |--3------3--1------1--|----------------------------|--------------------------|                                         
Manipulated

Bb5 (6th fret)       
Bend me, break me
F5 (8th fret)
Any way you need me
Bb            E5 (7th fret)
All I want is you
Bb 
Bend me, break me
F 
Breaking down is easy
Bb            D5 (5th fret)
All I want is you

E||-------------------------------|-----------------------------||
B||---------12------10------------|----------------------10-----||
G||*--12--------12--------10------|------12--------10----------*||
D||*--------------------------10/-|--12--------12--------------*||
A||-------------------------------|-----------------------------||
E||-------------------------------|-----------------------------||

|-------------------------------|-----------------------------|
|---------12------10------------|----------------------10-----|
|---12--------12--------10------|------12--------10-----------|
|---------------------------10/-|--12--------12---------------|
|-------------------------------|-----------------------------|
|-------------------------------|-----------------------------|
 I fall down just to             give you a thrill

|-------------------------------|-----------------------------|
|---------12------10------------|----------------------10-----|
|---12--------12--------10------|------12--------10-----------|
|---------------------------10/-|--12--------12---------------|
|-------------------------------|-----------------------------|
|-------------------------------|-----------------------------|
 Prop me up with                 another pill

|-------------------------------|-----------------------------|
|---------12------10------------|----------------------10-----|
|---12--------12--------10------|------12--------10-----------|
|---------------------------10/-|--12--------12---------------|
|-------------------------------|-----------------------------|
|-------------------------------|-----------------------------|
 If I should fail, if            I should fold

 (pause)
 I am my fate to the sticking pole

        |-----------------------|-----------------------|
        |-----------------------|-----------------------|
        |-----------------------|-----------------------|
        |-----------------------|-----------------------|
        |---5------5--3------3--|--6------6--3------3---|
        |---3------3--1------1--|--6------6\-3------3---|
I think I'm paranoid
        |-----------------------|-----------------------|
        |-----------------------|-----------------------|
        |-----------------------|-----------------------|
        |-----------------------|-----------------------|
        |---5------5--3------3--|--6------6--3------3---|
        |---3------3--1------1--|--6------6\-3------3---|
Manipulated
        |-----------------------|-----------------------|
        |-----------------------|-----------------------|
        |-----------------------|-----------------------|
        |-----------------------|-----------------------|
        |---5------5--3------3--|--6------6--3------3---|
        |---3------3--1------1--|--6------6\-3------3---|
I think I'm paranoid
     |----------------------|----------------------------|--------------------------|
     |----------------------|--------------11------------|----11--------------11----|
     |----------------------|--------14--------------14--|--------------14----------|
     |----------------------|--13----------------13------|----------13--------------|
     |--5------5--3------3--|----------------------------|--------------------------|
     |--3------3--1------1--|----------------------------|--------------------------|    
And complicated

Bb5 (6th fret)       
Bend me, break me
F5 (8th fret)
Any way you need me
Bb5           E5 (7th fret)
All I want is you
Bb5 
Bend me, break me
F5 
Breaking down is easy
Bb5           D5 (5th fret)
All I want is you
               
                         2x
||-----------------------||---------------------|
||-----------------------||---------------------|
||*---------------------*||---------------------|
||*---------------------*||--5------------------|
||---7-------------------||--3------------------|
||---0------------12\----||---------------12\---|
  Paranoid (3rd time)    

                        2x                                                      
|-----------------------||----------------------------|------------------------|
|-----------------------||--------------11------------|----11------------------|
|*---------------------*||--------14--------------14--|--------------14--------|
|*---------------------*||--13----------------13------|----------13------------|
|---7-------------------||----------------------------|------------------------|
|---0------------12\----||----------------------------|------------------------|
 Paranoid (3rd time)

Bb5 (6th fret)       
Bend me, break me
F5 (8th fret)
Any way you need me
Bb5           E5 (7th fret)
All I want is you
Bb5 
Bend me, break me
F5 
Breaking down is easy
Bb5           D5 (5th fret)
All I want is you

|-----------------------|--------------------------|------------------3----|------------------------|
|-----------------------|--------------------------|-----------------------|------------------------|
|-----------------------|--------------------------|-------3-----5b--------|-------3-----8------7---|
|-----------------------|--------------------------|----5-----5------------|----5-----5/------------|
|---5------5--3------3--|--6--6--6--6--6--6--6--6--|-----------------------|------------------------|
|---3------3--1------1--|--6--6--6--6--6--6--6--6--|-----------------------|------------------------|
 Steal me, deal me, any way you heal me
|-----------------------|--------------------------|------------------3----|------------------------|
|-----------------------|--------------------------|-----------------------|------------------------|
|-----------------------|--------------------------|-------3-----5b--------|-------3-----8------7---|
|-----------------------|--------------------------|----5-----5------------|----5-----5/------------|
|---5------5--3------3--|--6--6--6--6--6--6--6--6--|-----------------------|------------------------|
|---3------3--1------1--|--6--6--6--6--6--6--6--6--|-----------------------|------------------------|
 Maim me, tame me, you can never change me
|-----------------------|--------------------------|------------------3----|------------------------|
|-----------------------|--------------------------|-----------------------|------------------------|
|-----------------------|--------------------------|-------3-----5b--------|-------3-----8------7---|
|-----------------------|--------------------------|----5-----5------------|----5-----5/------------|
|---5------5--3------3--|--6--6--6--6--6--6--6--6--|-----------------------|------------------------|
|---3------3--1------1--|--6--6--6--6--6--6--6--6--|-----------------------|------------------------|
 Love me, like me, come ahead and fight me
|-----------------------|--------------------------|------------------3----|------------------------|
|-----------------------|--------------------------|-----------------------|------------------------|
|-----------------------|--------------------------|-------3-----5b--------|-------3-----8------7---|
|-----------------------|--------------------------|----5-----5------------|----5-----5/------------|
|---5------5--3------3--|--6--6--6--6--6--6--6--6--|-----------------------|------------------------|
|---3------3--1------1--|--6--6--6--6--6--6--6--6--|-----------------------|------------------------|
 Please me, tease me, go ahead and eat me

|-------------------------------|-----------------------------|
|---------12------10------------|----------------------10-----|
|---12--------12--------10------|------12--------10-----------|
|---------------------------10/-|--12--------12---------------|
|-------------------------------|-----------------------------|
|-------------------------------|-----------------------------|
 Bend me, break me,               any way you need me
|-------------------------------|-----------------------------|
|---------12------10------------|----------------------10-----|
|---12--------12--------10------|------12--------10-----------|
|---------------------------10/-|--12--------12---------------|
|-------------------------------|-----------------------------|
|-------------------------------|-----------------------------|
 As long as I want you baby       it's all right
|-------------------------------|-----------------------------|
|---------12------10------------|----------------------10-----|
|---12--------12--------10------|------12--------10-----------|
|---------------------------10/-|--12--------12---------------|
|-------------------------------|-----------------------------|
|-------------------------------|-----------------------------|
 Bend me, break me,               any way you need me
|-------------------------------|
|---------12------10------------|
|---12--------12--------10------|
|---------------------------10/-|
|-------------------------------|
|-------------------------------|
 As long as I want you baby       it's all right


http://www.sparkystabs.co.uk