Medication by Garbage 

Eb ------------7-----------------0-----------0---
Bb -----5------------7--5--------------7---------
Gb ---------------------------------6------------
Db --------7------------------6-----6-----6-----6
Ab ---7-----------7--------4---------------------
Eb -5--------------------------------------------

I don't need an education.....

Eb ------------------------------------------------
Bb ------3--------3---------------3----------------
Gb ---2--------2---------2--------4-------4-----4--
Db -0--------0--------0---------4-------4----------
Ab ---------------------------2-------2------2-----
Eb ------------------------------------------------

Eb ---------------2------------------------------
Bb ------3--------3---------------0------0-------
Gb ---2--------2---------2--------0------0-------
Db -0--------0--------0---------0------0---------
Ab ----------------------------------------------
Eb ---------------------------3------3-------3---

Chorus:

B5
C#5
E5
C#5

Bridge:

A
E
F#m
D

outro:
Amadd9 577x57
C#m    x46654

repeat these two chords