Garbage-Not My Idea

INTRO+CHORUS
E---------------------------------------
B---------------------------------------
G---------------------------------------
D--7-7-7-7-7-7-7-8-8-8-8----------------
A--7-7-7-7-7-7-7-8-8-8-8----------------
E--5-5-5-5-5-5-5-6-6-6-6----------------

E---------------------------------------
B-----------8-------12------8-----11----
G--------9-----9~--------9-----9--------
D----7~---------------------------------
A---------------------------------------
E---------------------------------------

E---------------------------------------
B-----------8-------11(b)---------------
G--------9-----9------------------------
D----7~---------------------------------
A---------------------------------------
E---------------------------------------

VERSE CHORDS
E---------------
B---------------
G---10----------
D---10-----10---
A---8------10---
E----------8----