Garbage-Only Happy When It Rains

Tuned normal
--|-------------|------------|-------------|-------------|--------------
--|-------------|------------|-------------|-------------|--------------
--|-------------|------------|-------------|-6-----------|--------------
--|--6----------|--4---------|--2----------|-6-----------|--2-----------
--|--6----------|--4---------|--2----------|-4-----------|--2-----------
--|--4----------|--2---------|--0----------|-4-----------|--0-----------


|------------------
|------------------
|------------------            Repeat
|--4---------------
|--4---------------
|--2-----------------
   
for chorus, instead of starting verse from the top, you move to 
this after the last F# chord ( ":" = repeat)
-|--------------|-------------|---------------|------------|------------
-|--------------|-------------|---------------|------------|------------
-|--4-----------|-------------|:---6----------|------------|------------
-|--4-----------|-------------|:---6----------|---6--------|--7---------
-|--2-----------|-------------|----4----------|---6--------|--7---------
-|--------------|-------------|---------------|---4--------|--5---------


-|-----------------|--
-|-----------------|--
-|--4-------------:|--
-|--4-------------:|--
-|--2--------------|--
-|-----------------|--


for "you can hear me call..." part.

-|------------|------------|------------|-------------|-------------|
-|------------|------------|------------|-------------|-------------|
-|-2----------|-2----------|-4----------|-------------|-----STOP!---|
-|-2----------|-2----------|-4----------|-4-----------|-4-----------|
-|-0----------|-0----------|-2----------|-4-----------|-4---STOP!---|
-|------------|------------|------------|-2-----------|-2-----------|




--------------|-------------|-----------------|-
--------------|-------------|-----------------|-
--------------|-------------|---6-------------|-
---6----------|---2---------|---6-------------|-
---6----------|---2---------|---4-------------|-
---4----------|---0---------|---4-------------|-