Green Day-Burnout

Verse
  G#              C#
I declare I don't care no more,
G#                 C#       F#       G#
I'm burning up and out and growing bored,
      F#                 D#
In my smoked out boring room.

Verse
My hair is shagging in my eyes,
Dragging my feet to hit the street tonight,
To drive along these shit town lights.

Chorus
C#               G#          C#  F#    G#
I'm not growing up I'm just burning out,
      C#                  F#                D#
And I stepped in line to walk amongst the dead.

Verse
Oh apathy has rained on me,
Now I'm feeling like a soggy dream,
So close to drowning but I don't mind.

Verse
I'll live inside this mental cave,
Throw my emotions in the grave,
Hell who needs them anyway.

Chorus x2

D#
Dead.
D#   
Dead.

  G#   F# G#       F# G#       F# G#       F# G#
|-----------------------------------------------|
|-----------------------------------------------|
|-----------------------------------------------|
|-6-6-6-4-6---6-6-6-4-6---6-6-6-4-6---6-6-6-4-6-|
|-6-6-6-4-6---6-6-6-4-6---6-6-6-4-6---6-6-6-4-6-|
|-4-4-4-2-4---4-4-4-2-4---4-4-4-2-4---4-4-4-2-4-|

Chorus x2

D#
Dead.

  G#   F# G#
|-------------||
|-------------||
|-------------||
|-6-6-6-4-6---||
|-6-6-6-4-6---||
|-4-4-4-2-4---||