Green Day-Minority

Intro
   C          G            FM7       C                     G           F  Em  C
E|-----------------------|-------0-------------|---------------------|-----------|
B|-------1-----------3---|---1-----1-------1---|-------1---------3---|-----------|
G|---------0----0------0-|-----2-------------0-|---------0---0-----0-|-2--0------|
D|---2-------------0-----|-3-----------2-------|---2-----------0-----|-3--2-0-2--|
A|-3---3-----------------|-----------3---3-----|-3---3---------------|--------3--|
E|------------3----------|---------------------|-----------3---------|-----------|

Chorus
C5      F5       G5  F5
I wanna be the minority
C5      F5          G5   F5
I don't need your authority
C5            F5      G5  F5
Down with the moral majority
      C5      F5       G5  F5
Cause I wanna be the minority

Verse
  C        G        F           C
I pledge allegience to the underworld
                 G            F             G
One nation under dog there of which I stand alone
  C           G        F                G
A face in the crowd, unsung against the mold
    C            F                G          C
Without a doubt, singled out, the only way I know

Chorus

Bridge
A5             E5  F5   C5
Stepped out of the line
A5           E5   F5       G5
Like a sheep runs from the herd
A5           E5 F5    C5
Marching out of time
A5        F5   G5
To my own beat now
                    B5
The only way I know

w/verse
One light, one mind flashing in the dark
Blinded by the silence of a thousand broken hearts
For crying out loud, she screamed unto me
A free for all, fuck em all, you are your own sight

Chorus

Bridge

Play first two lines of verse. No vox.

w/verse
One light, one mind flashing in the dark
Blinded by the silence of a thousand broken hearts
For crying out loud, she screamed unto me
A free for all, fuck em all, you are your own sight

Chorus

w/chorus and lead gtr
The minority x4

Play intro

Lead gtr
   C5  F5    G5  F5   C5  F5    G5  F5    C5  F5
e|---------|-----8--|---------|---------|----------|
B|---------|-8------|-8-------|---------|----------|
G|-9---10--|--------|-----10--|-9-------|-9---10---|
D|---------|--------|---------|-----10--|----------|
A|---------|--------|---------|---------|----------|
E|---------|--------|---------|---------|----------|

  G5  F5        C5  F5     G5 F5   C5 (start of outro)
------8-------|-8-------|--8----|---------|
--8--------8--|-----8---|-------|---------|
--------------|---------|-------|---------|
--------------|---------|-------|--10-----|
--------------|---------|-------|--10-----|
--------------|---------|-------|--8------|

http://www.sparkystabs.co.uk