Green Day-Nimrod

|
|   h  = hammer-on
|   p  = pull-off
|   b  = bend
|   r  = bend release
|   /  = slide up/down
|  <5> = natural harmonic
|  [5] = artifical harmonic
|   ~  = vibrato
|   tr = trill
|
\------------------------------------------------------ ----  ---   --    -

/--=[ Green Day : Nimrod : Nice Guys Finish Last ]=---- ----  ---   --    -
|  Tuning: Standard (low to high: e a d g b e)
|  Tempo: Fast
\------------------------------------------------------ ----  ---   --    -

INTRO
e:-----------------:-----------------:-----------------:-----------------:
b:-----------------:-----------------:-----------------:-----------------:
g:-----------------:-----------------:-----------------:-----------------:
d:-----------------:-----------------:-----------------:-------------7---:
a:-x-x-x-x-x-x-x-x-:-x-x-x-x-x-x-x-x-:-x-x-x-x-x-x-x-x-:-x-x-x-x-x-x-7---:
e:-x-x-x-x-x-x-x-x-:-x-x-x-x-x-x-x-x-:-x-x-x-x-x-x-x-x-:-x-x-x-x-x-x-5---:

e:-----------------:-----------------:-----------------:-----------------:
b:-----------------:-----------------:-----------------:-----------------:
g:*9---9-9-9-9-----:-----------------:-9---9-9-9-9-----:----------------*:
d:*9---9-9-9-9-7---:-9---9-9-9-9-7---:-9---9-9-9-9-7---:-9---9-9-9-9-7--*:
a:-7---7-7-7-7-7---:-9---9-9-9-9-7---:-7---7-7-7-7-7---:-9---9-9-9-9-7---:
e:-------------5---:-7---7-7-7-7-5---:-------------5---:-7---7-7-7-7-5---:

e:-----------------:-----------------:-----------------:-----------------:
b:-----------------:-----------------:-----------------:-----------------:
g:-----------------:-----------------:-9\--------------:-----------------:
d:-2---------------:-------------7---:-9\--------------:-----------------:
a:-2---------------:-------------7---:-7\--------------:-----------------:
e:-0---------------:-------------5---:-----------------:-----------------:

VERSE
e:-----------------:-----------------:-----------------:-----------------:
b:-----------------:-----------------:-----------------:-----------------:
g:-9---------------:-----------------:-----------------:-----------------:
d:-9---9-9-9-9-9-9-:-9-9-9-9-9-9-9-9-:-9-9-9-9-9-9-9-9-:-9-9-9-9-9-9-9-9-:
a:-7---7-7-7-7-7-7-:-7-7-7-7-7-7-7-7-:-7-7-7-7-7-7-7-7-:-7-7-7-7-7-7-7-7-:
e:-----------------:-----------------:-----------------:-----------------:
       PM---------------------------------------------------------------|

e:-----------------:-----------------:-----------------:-----------------:
b:-----------------:-----------------:-----------------:-----------------:
g:-----------------:-----------------:-9---9---9-9-9-9-:---9-9-9-9-9-9-9-:
d:-----------------:-----------------:-9---9---9-9-9-9-:---9-9-9-9-9-9-9-:
a:-9-9-9-9-9-9-9-9-:-9-9-9-9-9-9-9-9-:-7---7---7-7-7-7-:---7-7-7-7-7-7-7-:
e:-7-7-7-7-7-7-7-7-:-7-7-7-7-7-7-7-7-:-----------------:-----------------:
   PM-------------------------------|

PRE-CHORUS                                                             3x
e:-----------------:-----------------:-----------------:-----------------:
b:-----------------:-----------------:-----------------:-----------------:
g:*----------------:-----------------:-9---9---9-9-9-9-:---9-9-9-9-9-9-9*:
d:*7---7---7-7-7-7-:---7-7-7-7-7-7-7-:-9---9---9-9-9-9-:---9-9-9-9-9-9-9*:
a:-7---7---7-7-7-7-:---7-7-7-7-7-7-7-:-7---7---7-7-7-7-:---7-7-7-7-7-7-7-:
e:-5---5---5-5-5-5-:---5-5-5-5-5-5-5-:-----------------:-----------------:

e:-----------------:-----------------:-----------------:-----------------:
b:-----------------:-----------------:-----------------:-----------------:
g:-----------------:-----------------:-4---4---4-4-4-4-:---4-4-4-4-4-4-4-:
d:-4---4---4-4-4-4-:---4-4-4-4-4-4-4-:-4---4---4-4-4-4-:---4-4-4-4-4-4-4-:
a:-4---4---4-4-4-4-:---4-4-4-4-4-4-4-:-2---2---2-2-2-2-:---2-2-2-2-2-2-2-:
e:-2---2---2-2-2-2-:---2-2-2-2-2-2-2-:-----------------:-----------------:

CHORUS                             3x
e:-----------------:-----------------:-----------------:-----------------:
b:-----------------:-----------------:-----------------:-----------------:
g:*--------------2-:---2-2-2-2-2-2-2*:-4-4-4-4-4-4-4-4-:-4-4-4-4-4-4-4-4-:
d:*2---2---2-2-2-2-:---2-2-2-2-2-2-2*:-4-4-4-4-4-4-4-4-:-4-4-4-4-4-4-4-4-:
a:-2---2---2-2-2-0-:---0-0-0-0-0-0-0-:-2-2-2-2-2-2-2-2-:-2-2-2-2-2-2-2-2-:
e:-0---0---0-0-0---:-----------------:-----------------:-----------------:

BRIDGE
e:-----------------:-----------------:-----------------:-----------------:
b:-----------------:-----------------:-----------------:-----------------:
g:-9---9-9-9-9-----:-----------------:-9---9-9-9-9-----:-----------------:
d:-9---9-9-9-9-7---:-9---9-9-9-9-7---:-9---9-9-9-9-7---:-9---9-9-9-9-7---:
a:-7---7-7-7-7-7---:-9---9-9-9-9-7---:-7---7-7-7-7-7---:-9---9-9-9-9-7---:
e:-------------5---:-7---7-7-7-7-5---:-------------5---:-7---7-7-7-7-5---:

e:-----------------:-----------------:-----------------:-----------------:
b:-----------------:-----------------:-----------------:-----------------:
g:-9---9-9-9-9-----:-----------------:-----------------:-----------------:
d:-9---9-9-9-9-7---:-9---9-9-9-9-7---:-7---7-7-7-7-6---:-4---4-4-4-4-7---:
a:-7---7-7-7-7-7---:-9---9-9-9-9-7---:-7---7-7-7-7-6---:-4---4-4-4-4-7---:
e:-------------5---:-7---7-7-7-7-5---:-5---5-5-5-5-4---:-2---2-2-2-2-5---:

e:-----------------:-----------------:
b:-----------------:-----------------:
g:-----------------:-----------------:
d:-9---9-9-9-9-9-9-:-9-9-9-9-9-9-9-9-:
a:-9---9-9-9-9-9-9-:-9-9-9-9-9-9-9-9-:
e:-7---7-7-7-7-7-7-:-7-7-7-7-7-7-7-7-:

Intro Riff

Verse 1 w/ VERSE
Nice guys finish last.
You're running out of gas.
Your sympathy will get you left behind.

Sometimes your at your best, when you look the worst.
Do you feel washed up, like piss going down the drain.

Pre-Chorus w/ PRE-CHORUS
Pressure cooker pick my brain and tell me I'm insane.
I'm so fucking happy I could cry.
Every joke can have its truth and now the joke's on you.
I never know you were such a funny guy.

Chorus w/ CHORUS
Oh nice guys finish last, when you are the outcast.
Donn't pat yourself on the back, you might break your spine.

Verse 2 w/ VERSE
Living on command.
You're shaking lots of hands.
Kissing up and bleeding all your trust, taking what you need.
Bit the hand that feeds.
You kill your memory.

Pre-Chorus
Chorus X2
INTERLUDE
Chorus X2
VERSE (3rd bar only)

/--=[ Green Day : Nimrod : Hitchin' A Ride ]=---------- ----  ---   --    -
|  Tuning: Standard (low to high: e a d g b e)
|  Tempo: Fast Rock (162) - Triplet Feel
|  Note: Recently at a magazine store I noticed Steve Gorenberg (of
|        GUITAR Magazine)'s transcription of this song. I noticed that
|        my arrangement was starttlingly close, except he had a few
|        fingering differences. Well anyways I've changed those to his,
|        in the solo and the bassline. All the rest is mine. Bye!
|        BTW - If you're going to buy *any* guitar magazine, make sure
|        it is GUITAR magazine. The best transcriptions I've ever seen. :)
\------------------------------------------------------ ----  ---   --    -

VIOLIN INTRO
e:-----------------:-----------------:
b:-----------------:-8---------------:
g:-----8h9-11------:--11-------------:
d:-9h10------------:----98t9---------:
a:-----------------:---------10~~~~~-:
e:-----------------:-----------------:

VERSE
e:-----------------:-----------------:-----------------:-----------------:
b:-----------------:-----------------:-----------------:-----------------:
g:-----------------:-----------------:-----------------:-----------------:
d:-----------------:-----------------:-----------------:-----------------:
a:-9---9-x-7---7-x-:-6---6-x-5-5-5/--:-9---9-x-7---7-x-:-6---6-x-5-5-5/--:
e:-7---7-x-5---5-x-:-4---4-x-3-3-3/--:-7---7-x-5---5-x-:-4---4-x-3-3-3/--:
   PM-----------------------------------------------------------------|

PRE-CHORUS                                                             3x
e:-----------------:-----------------:-----------------:-----------------:
b:-----------------:-----------------:-----------------:-----------------:
g:*----------------:-----------------:-----------------:----------------*:
d:*9---9-x-7---7-x-:-6---6-x-5-5-5/--:-9---9-x-7---7-x-:-6---6-x-5-5-5/-*:
a:-9---9-x-7---7-x-:-6---6-x-5-5-5/--:-9---9-x-7---7-x-:-6---6-x-5-5-5/--:
e:-7---7-x-5---5-x-:-4---4-x-3-3-3/--:-7---7-x-5---5-x-:-4---4-x-3-3-3/--:

e:-----------------:-----------------:-----------------:-----------------:
b:-----------------:-----------------:-----------------:-----------------:
g:-----------------:-----------------:-----------------:-----------------:
d:-9---9-x-7---7-x-:-6---6-x-5-5-5/--:-9---9-9-7-7-7-7-:-6-6-6-6-5-5-5-5-:
a:-9---9-x-7---7-x-:-6---6-x-5-5-5/--:-9---9-9-7-7-7-7-:-6-6-6-6-5-5-5-5-:
e:-7---7-x-5---5-x-:-4---4-x-3-3-3/--:-7---7-7-5-5-5-5-:-4-4-4-4-3-3-3-3-:

CHORUS
e:-----------------:-----------------:-----------------:-----------------:
b:-----------------:-----------------:-----------------:-----------------:
g:-----------------:-----------------:-----------------:-----------------:
d:-2---2-2---2-2---:-4---4-4---4-4---:-9---9-9-7---7-7-:-6---6-6-5-5-5---:
a:-2---2-2---2-2---:-4---4-4---4-4---:-9---9-9-7---7-7-:-6---6-6-5-5-5-0-:
e:-0---0-0---0-0---:-2---2-2---2-2---:-7---7-7-5---5-5-:-4---4-4-3-3-3-0-:

e:-----------------:
b:-----------------:
g:-----------------:
d:-2---2-2-2---2---:
a:-2---2-2-2---2---:
e:-0---0-0-0---0---:

SOLO/OUTRO RHYTHM
e:-----------------:-----------------:
b:-----------------:-----------------:
g:-----------------:-----------------:
d:-9---9-9-12-12-12:-5---5-5-4-4-4-4-:
a:-9---9-9-12-10-12:-5---5-5-4-4-4-4-:
e:-7---7-7-10-10-10:-3---3-3-2-2-2-2-:

SOLO/OUTRO BASSLINE
g:-----------------:-----------------:-----------------:-----------------:
d:-----------------:-----------------:-----------------:-----------------:
a:-----------------:-----------------:-----------------:10101010-9-7-----:
e:-7---7--10--10---:-3---3---2-2-2-2-:-7---7--10--10---:-------------9-7-:

For the solo, I'm simply putting the chord changes, playing it is simply
just hitting the strings as fast as feels good. This saves space and is
just as easy to read. Basically: listen to the song for timing. :)

e:-----------------:-----------------:-----------------:-----------------:
b:12--------------/:15--------------\:12---------------:-8-------7-------:
g:-----------------:-----------------:-----------------:-----------------:
d:-9--------------/:12--------------\:-9---------------:-5-------4-------:
a:-----------------:-----------------:-----------------:-----------------:
e:-----------------:-----------------:-----------------:-----------------:

e:-----------------:-----------------:-----------------:17---------------:
b:12--------------/:15---------------:17b--------------:17---------------:
g:-----------------:-----------------:-----------------:-----------------:
d:-9--------------/:12---------------:14b--------------:14---------------:
a:-----------------:-----------------:-----------------:-----------------:
e:-----------------:-----------------:-----------------:-----------------:

e:-----------------:-----------------:-----------------:-----------------:
b:17--15--12--15---:17--15--12--15---:17--15--12--10---:12--15--12--10---:
g:-----------------:-----------------:-----------------:-----------------:
d:14--12---9--12---:14--12---9--12---:14--12---9---7---:-9--12---9---7---:
a:-----------------:-----------------:-----------------:-----------------:
e:-----------------:-----------------:-----------------:-----------------:

e:-----------------:-----------------:-----------------:17---------------:
b:12--15--17--15---:12--15--17--15---:17b--------------:17---------------:
g:-----------------:-----------------:-----------------:-----------------:
d:-9--12--14--12---:-9--12--14--12---:14b--------------:14---------------:
a:-----------------:-----------------:-----------------:-----------------:
e:-----------------:-----------------:-----------------:-----------------:

VIOLIN INTRO

Intro w/ VERSE

Verse 1 w/ VERSE
Hey mister, where you headed?
Are you in a hurry?
I need a lift to happy hour.
Say oh no.

Do you brake for distilled spirits?
I need a break as well.
The well that inebriates the guilt.
1, 2. 1, 2, 3, 4.

Interlude w/ PRE-CHORUS

Verse 2 w/ VERSE
Cold turkey's getting stale,
tonight I'm eating crow.
Fermented salmonella poison oak no.

There's a drought at the fountain of youth, and now I'm dehydrating.
My tongue is swelling up, as say 1, 2. 1, 2, 3, 4.

Pre-Chorus w/ PRE-CHORUS

Chorus w/ CHORUS
Troubled times, you know I can not lie.
I'm off the wagon and I'm hitchin' a ride.

Verse 1 (1st part)

Solo w/ SOLO/OUTRO RHYTHM, SOLO/OUTRO BASSLINE, SOLO

Verse 1 (2nd part)

Outro w/ SOLO/OUTRO RHYTHM, SOLO/OUTRO, background vocal: "Don't know where
to go"

/--=[ Green Day : Nimrod : The Grouch ]=--------------- ----  ---   --    -
|  Tuning: Standard (low to high: e a d g b e)
|  Tempo: Moderate
\------------------------------------------------------ ----  ---   --    -

VERSE
e:-----------------:-----------------:-----------------:-----------------:
b:-----------------:-----------------:-----------------:-----------------:
g:-----------------:-------7-7---x---:---------------7-:-7---x-----------:
d:-7---x-2-2---x-7-:-7---x-7-7---x-7-:-7---x-2-2---x-7-:-7---x-7-7-7-7-7-:
a:-7---x-2-2---x-7-:-7---x-5-5---x-7-:-7---x-2-2---x-5-:-5---x-7-7-7-7-7-:
e:-5---x-0-0---x-5-:-5---x---------5-:-5---x-0-0---x---:-------5-5-5-5-5-:

e:-----------------:-----------------:-----------------:-----------------:
b:-----------------:-----------------:-----------------:-----------------:
g:-----------------:-------7-7---x---:-----------------:-----------------:
d:-7---x-2-2---x-7-:-7---x-7-7---x-7-:-7---x-2-2---x-7-:-7-7-7-7-7-7-7-7-:
a:-7---x-2-2---x-7-:-7---x-5-5---x-7-:-7---x-2-2---x-7-:-7-7-7-7-7-7-7-7-:
e:-5---x-0-0---x-5-:-5---x---------5-:-5---x-0-0---x-5-:-5-5-5-0-5-5-5-0-:

CHORUS
e:-----------------:-----------------:-----------------:-----------------:
b:-----------------:-----------------:-----------------:-----------------:
g:-------7-7---x---:-----------------:-------7-7-7-x---:-------9-9-9-9-9-:
d:-4---x-7-7---x-7-:-7---x-2-2-2-2-2-:-4-4-x-7-7-7-x-7-:-7-7-x-9-9-9-9-9-:
a:-4---x-5-5---x-7-:-7---x-2-2-2-2-2-:-4-4-x-5-5-5-x-7-:-7-7-x-7-7-7-7-7-:
e:-2---x---------5-:-5---x-0-0-0-0-0-:-2-2-x---------5-:-5-5-x-----------:

SOLO
e:-----------------:-----------------:-----------------:-----------------:
b:-5---5-5-5---5h7-:-7---7p5-5---5-5-:-5---5-5-5---5\3-:-3---3h5-5---5p0-:
g:-----------------:-----------------:-----------------:-----------------:
d:-----------------:-----------------:-----------------:-----------------:
a:-----------------:-----------------:-----------------:-----------------:
e:-----------------:-----------------:-----------------:-----------------:

e:-----------------:-----------------:-----------------:-----------------:
b:-0h2-2---2---2p0-:-2h3-3---3---3p0-:-0---7---5-2-0---:-----------------:
g:-----------------:-----------------:-----------------:-2---------------:
d:-----------------:-----------------:-----------------:-----------------:
a:-----------------:-----------------:-----------------:-----------------:
e:-----------------:-----------------:-----------------:-----------------:

e:-2---2-3-3---3-2-:-2---2-0-0---0-2-:-2-2-2-2-3-3-3-2-:-2-2-2-3-5-5-5-5-:
b:-2---2-3-3---3-2-:-2---2-0-0---0-2-:-2-2-2-2-3-3-3-2-:-2-2-2-3-5-5-5-5-:
g:*----------------:-----------------:-----------------:----------------*:
d:*----------------:-----------------:-----------------:----------------*:
a:-----------------:-----------------:-----------------:-----------------:
e:-----------------:-----------------:-----------------:-----------------:

e:-5-5-5-5-5-5-5-5-:-5-5-5-5-5-5-5-5-:-5\--------------:
b:-5-5-5-5-5-5-5-5-:-5-5-5-5-5-5-5-5-:-5\--------------:
g:-----------------:-----------------:-----------------:
d:-----------------:-----------------:-----------------:
a:-----------------:-----------------:-----------------:
e:-----------------:-----------------:-----------------:

Verse 1 w/ VERSE
I was a young boy that had big plans,
Now I'm just another Shitty old man.
I don't have fun and I hate everything,
The world owes me so fuck you.

Verse 2 w/ VERSE
Glory days don't mean shit to me,
I drank a six-pack of apathy.
Life's a bitch and so am I,
The world owes me so fuck you.

Chorus w/ CHORUS
Wasted youth and a fistfull of ideals,
I had a young and optimistic point of view.
Wasted youth and a fistfull of ideals,
I had a young and optimistic point of view.

Verse 3 w/ VERSE
I've decomposed yet my guts getting fat,
Oh my god I'm turning out like my dad.
I'm always rude, I got a bad attitude,
The world owes me so fuck you.

Verse 4 w/ VERSE
The wife's a nag, and the kid's fucking up,
I don't have sex 'cause I can't get it up.
I'm just a grouch, sitting on the couch,
The world owes me so fuck you.

Chorus

Solo w/ SOLO

Verse 1

Verse 2

The world owes me so fuck you.
The world owes me so fuck you.

/--=[ Green Day : Nimrod : Redundant ]=---------------- ----  ---   --    -
|  Tuning: Standard (low to high: e a d g b e)
|  Tempo: Moderate
\------------------------------------------------------ ----  ---   --    -

INTRO
e:-----------------:-----------------:-----------------:-----------------:
b:-------2---------:-------2---------:-------2---------:-----------------:
g:-----------2-----:-----------2-----:-----------2-----:-----------------:
d:-----------------:-----------------:-----------------:-4-4-4-4-4-4-4-4-:
a:-----------------:-----------------:-----------------:-4-4-4-4-4-4-4-4-:
e:-5---------------:-4---------------:-3---------------:-2-2-2-2-2-2-2-2-:

e:-----------------:-----------------:-----------------:-----------------:
b:-----------------:-----------------:-----------------:-----------------:
g:-4-4-4-4-4-4-4-4-:-7-7-7-7-7-7-7-7-:-----------------:---------9---9---:
d:-4-4-4-4-4-4-4-4-:-7-7-7-7-7-7-7-7-:-7-7-7-7-7-7-7-7-:-7-7-7-7-9---9---:
a:-2-2-2-2-2-2-2-2-:-5-5-5-5-5-5-5-5-:-7-7-7-7-7-7-7-7-:-7-7-7-7-7---7---:
e:-----------------:-----------------:-5-5-5-5-5-5-5-5-:-5-5-5-5---------:

VERSE
e:-----------------:-----------------:-----------------:-----------------:
b:-----------------:-----------------:-----------------:-----------------:
g:-----------------:-7-7-7-7-7-7-7-7-:-------------7---:-----------------:
d:-7-7-7-7-7-7-7-7-:-7-7-7-7-7-7-7-7-:-7-7-7-7-7-7-7---:-7-7-7-7-7-7-7-7-:
a:-7-7-7-7-7-7-7-7-:-5-5-5-5-5-5-5-5-:-7-7-7-7-7-7-5---:-7-7-7-7-7-7-7-7-:
e:-5-5-5-5-5-5-5-5-:-----------------:-5-5-5-5-5-5-----:-5-5-5-5-5-5-5-5-:

e:-----------------:-----------------:-----------------:-----------------:
b:-----------------:-----------------:-----------------:-----------------:
g:-----------------:-7-7-7-7-7-7-7-7-:-----------------:-----------------:
d:-7-7-7-7-7-7-7-7-:-7-7-7-7-7-7-7-7-:-2-2-2-2-2-2-2-2-:-2-2-2-2-5---5---:
a:-7-7-7-7-7-7-7-7-:-5-5-5-5-5-5-5-5-:-2-2-2-2-2-2-2-2-:-2-2-2-2-5---5---:
e:-5-5-5-5-5-5-5-5-:-----------------:-0-0-0-0-0-0-0-0-:-0-0-0-0-3---3---:

SOLO/INTERLUDE RHYTHM
e:-----------------:-----------------:-----------------:-----------------:
b:-----------------:-----------------:-----------------:-----------------:
g:-----------------:-7-7-7-7-7-7-7-7-:-------------7---:-----------------:
d:-7-7-7-7-7-7-7-7-:-7-7-7-7-7-7-7-7-:-7-7-7-7-7-7-7---:-7-7-7-7-7-7-7-7-:
a:-7-7-7-7-7-7-7-7-:-5-5-5-5-5-5-5-5-:-7-7-7-7-7-7-5---:-7-7-7-7-7-7-7-7-:
e:-5-5-5-5-5-5-5-5-:-----------------:-5-5-5-5-5-5-----:-5-5-5-5-5-5-5-5-:

e:-----------------:-----------------:-----------------:-----------------:
b:-----------------:-----------------:-----------------:-----------------:
g:-----------------:-4-4-4-4-4-4-4-4-:-----------------:-----------------:
d:-4-4-4-4-4-4-4-4-:-4-4-4-4-4-4-4-4-:-2-2-2-2-2-2-2-2-:-2-2-2-2-5---5---:
a:-4-4-4-4-4-4-4-4-:-2-2-2-2-2-2-2-2-:-2-2-2-2-2-2-2-2-:-2-2-2-2-5---5---:
e:-2-2-2-2-2-2-2-2-:-----------------:-0-0-0-0-0-0-0-0-:-0-0-0-0-3---3---:

SOLO
e:-----------------:-----------------:-----------------:-----------------:
b:-----------------:-------7---------:-----------------:-----------------:
g:-------6---------:-----------7-----:-------6-----7---:-------6---------:
d:-----------7-----:-------------7---:-----------7-7---:-----------7-----:
a:-------------7---:-5---------------:-------------5---:-------------7---:
e:-5---------------:-----------------:-5---------------:-5---------------:

e:-----------------:-----------------:-----------------:-----------------:
b:-----------------:-------4---------:-------0---------:-----------------:
g:-------3---------:-----------4-----:-----------------:-----------------:
d:-----------4-----:-------------4---:-----------------:-----------------:
a:-------------4---:--2--------------:-----------------:-----------------:
e:-2---------------:-----------------:-0---------------:-----------------:

Intro w/ INTRO

Verse 1 w/ VERSE
We're living in repetition.
Content in the same old shtick again.
Now the routine's turning to contention,
like a production line going over and over and over, roller coaster.

Chorus w/ INTRO
Now I cannot speak, I've lost my voice.
I'm speechless and reduntant.
'Cause I love you's not enough.
I'm lost for words

Verse 2 w/ VERSE
Choreographed and lack of passion.
Prototypes of what we were.
Went full circle 'til I'm nauseous.
Taken for granted now I waste it, faked it, ate it, now I hate it.

Chorus

Solo w/ SOLO

Chorus

Chorus

/--=[ Green Day : Nimrod : Scattered ]=---------------- ----  ---   --    -
|  Tuning: Standard (low to high: e a d g b e)
|  Tempo: Fast
\------------------------------------------------------ ----  ---   --    -
                    _________________ _________________
INTRO              |1,2,3.           |4.
e:-----------------:-----------------:-----------------:
b:-----------------:-----------------:-----------------:
g:*4---4---4-4-4---:----------------*:-4-4-4-4-4-4-4-4-:
d:*4---4---4-4-4-7-:---6-2---2-2-2-2*:-4-4-4-4-4-4-4-4-:
a:-2---2---2-2-2-7-:---6-2---2-2-2-2-:-2-2-2-2-2-2-2-2-:
e:---------------5-:---4-0---0-0-0-0-:-----------------:

VERSE
e:-----------------:-----------------:-----------------:-----------------:
b:-----------------:-----------------:-----------------:-----------------:
g:-----------------:-----------------:-----------------:-----------------:
d:-2-2-2-2---2-2-2-:---2-2---2-2-2-2-:-6-6-6-6---6-6-6-:---6-6---6-6-6-6-:
a:-2-2-2-2---2-2-2-:---2-2---2-2-2-2-:-6-6-6-6---6-6-6-:---6-6---6-6-6-6-:
e:-0-0-0-0---0-0-0-:---0-0---0-0-0-0-:-4-4-4-4---4-4-4-:---4-4---4-4-4-4-:

e:-----------------:-----------------:-----------------:-----------------:
b:-----------------:-----------------:-----------------:-----------------:
g:-2-2-2-2---2-2-2-:---2-2---2-2-2-2-:-4-4-4-4---4-4-4-:---4-4---4-4-4-4-:
d:-2-2-2-2---2-2-2-:---2-2---2-2-2-2-:-4-4-4-4---4-4-4-:---4-4---4-4-4-4-:
a:-0-0-0-0---0-0-0-:---0-0---0-0-0-0-:-2-2-2-2---2-2-2-:---2-2---2-2-2-2-:
e:-----------------:-----------------:-----------------:-----------------:

CHORUS
e:-----------------:-----------------:-----------------:-----------------:
b:-----------------:-----------------:-----------------:-----------------:
g:-6---6---6-6-6-9-:---9-9---9-9-9-9-:-----------------:-----------------:
d:-6---6---6-6-6-9-:---9-9---9-9-9-9-:-9---9---9-9-9-7-:---7-7---7-7-7-7-:
a:-4---4---4-4-4-7-:---7-7---7-7-7-7-:-9---9---9-9-9-7-:---7-7---7-7-7-7-:
e:-----------------:-----------------:-7---7---7-7-7-5-:---5-5---5-5-5-5-:

e:-----------------:-----------------:-----------------:-----------------:
b:-----------------:-----------------:-----------------:-----------------:
g:-----------------:-----------------:-9-----9-9-----9-:---9---9-9-9-9-9-:
d:-4---4---4-4-4-7-:---7-7---7-7-7-7-:-9-----9-9-----9-:---9---9-9-9-9-9-:
a:-4---4---4-4-4-7-:---7-7---7-7-7-7-:-7-----7-7-----7-:---7---7-7-7-7-7-:
e:-2---2---2-2-2-5-:---5-5---5-5-5-5-:-----------------:-----------------:

Intro w/ Intro Riff

Verse 1 w/ Verse Riff
I've got some scattered pictures lying on my bedroom floor.
Reminds me of the times we shared.
Makes me wish that you were here.
Now it seems I've forgotten my purpose in this life.
All the songs have been erased.
Guess I've learned from my mistakes.

Chorus w/ Chorus Riff
Open the past and present.
Now and we are there.
Story to tell and I am listening.
Open the bast and present.
And the future too.
It's all I've got and I'm giving it up to you.

Verse 2 w/ Verse Riff
Loose ends tied in knots.
Leaving a lump down in my throat.
Gagging on a souvenir.
Lodged to fill another year.
Drag it on and on until my skin is ripped to shreds.
Leaving my self wide open.
Living out a sacrifice.

Chorus

Bridge w/ Intro Riff
If you got no one and I've got no place to go, would it be alright?
Could it be alright?

Verse 1
Chorus

/--=[ Green Day : Nimrod : All The Time ]=------------- ----  ---   --    -
|  Tuning: Standard (low to high: e a d g b e)
|  Tempo: Moderate
\------------------------------------------------------ ----  ---   --    -
                    _________________ _________________
INTRO/CHORUS       |1,2,3.           |4.
e:-----------------:-----------------:-----------------:
b:-----------------:-----------------:-----------------:
g:*9-9---7---------:-9-9---7--------*:-9-9-9-9-9-9-9-9-:
d:*9-9---7---7---x-:-9-9---7---7---x*:-9-9-9-9-9-9-9-9-:
a:-7-7---5---7---x-:-7-7---5---7---x-:-7-7-7-7-7-7-7-7-:
e:-----------5---x-:-----------5---x-:-----------------:

VERSE
e:-----------------:-----------------:
b:-----------------:-----------------:
g:-----------------:-------7---7-7-7-:
d:-6/7-7---7-7-7-5-:---5-5-7---7-7-7-:
a:-6/7-7---7-7-7-5-:---5-5-5---5-5-5-:
e:-4/5-5---5-5-5-3-:---3-3-----------:

BRIDGE
e:-----------------:-----------------:
b:-----------------:-----------------:
g:-------6-7---6---:-------4-5-5-5---:
d:-7---7-6-7---6-7-:-5---5-4-5-5-5-0-:
a:-7---7-4-5---4-7-:-5---5-2-3-3-3-0-:
e:-5---5---------5-:-3---3-----------:

Intro w/ INTRO/CHORUS

Verse 1 w/ VERSE
All the time, every time I need it.
What's the time?
I'd say the time is right.
Here's to me.
Let's find another reason.
Down the hatch.
And a bad attitude, salud.

Bridge w/ INTRO/CHORUS
Wasting time, wasting time down a bum fuck road.
And I don't know where the hell it'll go.
Heirlooms and huffing fumes, and I'm picking up the pace
and I'm gonna smash straight into a wall.

Verse 2 w/ VERSE
All the time.
A "New Years Resolution" how soon that we forget.
Doing time.
Loving every minute.
Live it up on another let down. salud.

Bridge w/ INTRO/CHORUS
Promises, promises, it was all set in stone.
Cross my heart and hope to die.
Sugar fix.
Dirty tricks and a trick question.
Guess I should have read between the lines.

Bridge w/ BRIDGE

Chorus w/ INTRO/CHORUS
Having the time of my life,
watch the clock tick.

Verse 3 w/ VERSE
All the time, where did all the time go?
It's too late to say goodnight.
Time flies when you're having fun.
Times up when you work like a dog, salud.

/--=[ Green Day : Nimrod : Worry Rock ]=--------------- ----  ---   --    -
|  Tuning: Standard (low to high: e a d g b e)
|  Tempo: Moderate
\------------------------------------------------------ ----  ---   --    -

*note on 2nd time through, replace all high E (x799xx) with low E (022xxx)*
VERSE
e:-----------------:-----------------:-----------------:-----------------:
b:-----------------:-----------------:-----------------:-----------------:
g:-9-9-9-9-9-9-9-9-:-4-4-4-4-4-4-4-4-:-2-2-2-2-2-2-2-2-:-9-9-9-9-9-9-9-9-:
d:-9-9-9-9-9-9-9-9-:-4-4-4-4-4-4-4-4-:-2-2-2-2-2-2-2-2-:-9-9-9-9-9-9-9-9-:
a:-7-7-7-7-7-7-7-7-:-2-2-2-2-2-2-2-2-:-0-0-0-0-0-0-0-0-:-7-7-7-7-7-7-7-7-:
e:-----------------:-----------------:-----------------:-----------------:

e:-----------------:-----------------:-----------------:-----------------:
b:-----------------:-----------------:-----------------:-----------------:
g:-2-2-2-2-2-2-2-2-:-----------------:-2-2-2-2-2-2-2-2-:-4-4-4-4-4-4-4-4-:
d:-2-2-2-2-2-2-2-2-:-2-2-2-2-2-2-2-2-:-2-2-2-2-2-2-2-2-:-4-4-4-4-4-4-4-4-:
a:-0-0-0-0-0-0-0-0-:-2-2-2-2-2-2-2-2-:-0-0-0-0-0-0-0-0-:-2-2-2-2-2-2-2-2-:
e:-----------------:-0-0-0-0-0-0-0-0-:-----------------:-----------------:
                                      ___________________________________
CHORUS                               |1.                                 |
e:-----------------:-----------------:-----------------:-----------------:
b:-----------------:-----------------:-----------------:-----------------:
g:*6-6-6-6-6-6-6-6-:-----------------:-----------------:----------------*:
d:*6-6-6-6-6-6-6-6-:-6-6-6-6-6-6-6-6-:-7-7-7-7-7-7-7-7-:-2-2-2-2-2-2-2-2*:
a:-4-4-4-4-4-4-4-4-:-6-6-6-6-6-6-6-6-:-7-7-7-7-7-7-7-7-:-2-2-2-2-2-2-2-2-:
e:-----------------:-4-4-4-4-4-4-4-4-:-5-5-5-5-5-5-5-5-:-0-0-0-0-0-0-0-0-:
  ___________________________________
 |2.
e:-----------------:-----------------:
b:-----------------:-----------------:
g:-----------------:-4-4-4-4-4-4-4-4-:
d:-4-4-4-4-4-4-4-4-:-4-4-4-4-4-4-4-4-:
a:-4-4-4-4-4-4-4-4-:-2-2-2-2-2-2-2-2-:
e:-2-2-2-2-2-2-2-2-:-----------------:

SOLO
e:-----------------:-----------------:-----------------:-----------------:
b:-----------------:-----------------:-----------------:-----------------:
g:-----------------:-----------------:-----------------:-----------------:
d:-----------------:-----------------:-----------------:-----------------:
a:-------------2---:----/6---4---2---:-0---4---2---0---:-2---------------:
e:-0-----4-5-------:-4---------------:-----------------:---5-4-----------:

e:-----------------:-----------------:-----------------:-----------------:
b:-----------------:-----------------:-----------------:-----------------:
g:-----------------:-----------------:-----------------:-----------------:
d:-----------------:-----------------:-----------------:-----------------:
a:-----4---2-------:-2---------------:-----------------:-----------------:
e:-5-----------5---:-----4---0-------:-5---5---5---4---:-4---2-----------:

e:-----------------:-----------------:-----------------:-----------------:
b:-5-5-5-5-5-4-4-4-:-5/7---5-5-0-2-2-:-2-0-2-2-2-0-2-2-:-4-2---0-0-0-2-2-:
g:-----------------:-----------------:-----------------:-----------------:
d:-----------------:-----------------:-----------------:-----------------:
a:-----------------:-----------------:-----------------:-----------------:
e:-----------------:-----------------:-----------------:-----------------:

e:-----------------:-----------------:--------------/7-:-7-5-5-4-4-2\----:
b:-2-0-2-2-2-0-2-2-:-4-2---0-0---2-2-:-4-4-5-5-5-5-5/7-:-7-5-5-4-4-2\----:
g:-----------------:-----------------:-----------------:-----------------:
d:-----------------:-----------------:-----------------:-----------------:
a:-----------------:-----------------:-----------------:-----------------:
e:-----------------:-----------------:-----------------:-----------------:

Verse 1 w/ VERSE
Another sentimental argument, and bitter love.
Fucked without a kiss again and dragged it through the mud.
Yelling at brick walls and punching windows made of stone.
The worry rock has turned to dust, and fallen on our pride.

Chorus w/ CHORUS
A knocked down dragged out fight.
Fat lips and open wounds.
Another wasted night, and no one will take the fall.

Where do we go from where?
and what did you do with the directions?
Promise me no dead end streets and I'll guarantee we'll have the road.

Solo w/ SOLO

Verse 1

/--=[ Green Day : Nimrod : Platypus (I Hate You) ]=---- ----  ---   --    -
|  Tuning: Standard (low to high: e a d g b e)
|  Tempo: Very Fast
\------------------------------------------------------ ----  ---   --    -

INTRO
e:-----------------:-----------------:-----------------:-----------------:
b:-----------------:-----------------:-----------------:-----------------:
g:-----------------:-----------------:-----------------:-----------------:
d:-9-9-9-9-5---4---:-9-9-9-9-5---4---:-9-9-9-9-5---4---:-9-9-9-9-5---4---:
a:-9-9-9-9-5---4---:-9-9-9-9-5---4---:-9-9-9-9-5---4---:-9-9-9-9-5---4---:
e:-7-7-7-7-3---2---:-7-7-7-7-3---2---:-7-7-7-7-3---2---:-7-7-7-7-3---2---:

e:-----------------:-----------------:-----------------:-----------------:
b:-----------------:-----------------:-----------------:-----------------:
g:-----------------:-9-9-9-9---------:-----------------:-9---------------:
d:-9-9-9-9-7-7-7-7-:-9-9-9-9-9-9-9-9-:-9-9-9-9-7-7-7-7-:-9---------4-5-7-:
a:-9-9-9-9-7-7-7-7-:-7-7-7-7-9-9-9-9-:-9-9-9-9-7-7-7-7-:-7---------4-5-7-:
e:-7-7-7-7-5-5-5-5-:---------7-7-7-7-:-7-7-7-7-5-5-5-5-:-----------2-3-5-:

VERSE
e:-----------------:-----------------:-----------------:-----------------:
b:-----------------:-----------------:-----------------:-----------------:
g:-----------------:-9-9-9-9---------:-----------------:-9-9-9-9---------:
d:-9-9-9-9-7-7-7-7-:-9-9-9-9-9-9-9-9-:-9-9-9-9-7-7-7-7-:-9-9-9-9-9-9-9-9-:
a:-9-9-9-9-7-7-7-7-:-7-7-7-7-9-9-9-9-:-9-9-9-9-7-7-7-7-:-7-7-7-7-9-9-9-9-:
e:-7-7-7-7-5-5-5-5-:---------7-7-7-7-:-7-7-7-7-5-5-5-5-:---------7-7-7-7-:
                                      ___________________________________
CHORUS                               |1.
e:-----------------:-----------------:-----------------:-----------------:
b:-----------------:-----------------:-----------------:-----------------:
g:*----------------:-----------------:-----------------:-----------9-9-9-:
d:*7-7-7-7-7-7-7-7-:-7-7-7-7-7-7-7-7-:-7-7-7-7-7-7-7-7-:-7-7-7-7-7-9-9-9-:
a:-7-7-7-7-7-7-7-7-:-7-7-7-7-7-7-7-7-:-7-7-7-7-7-7-7-7-:-7-7-7-7-7-7-7-7-:
e:-5-5-5-5-5-5-5-5-:-5-5-5-5-5-5-5-5-:-5-5-5-5-5-5-5-5-:-5-5-5-5-5-------:
  ___________________________________ ___________________________________
                                     |2.
e:-----------------:-----------------:-----------------:-----------------:
b:-----------------:-----------------:-----------------:-----------------:
g:-----------------:----------------*:-----------------:-----------------:
d:-9-9-9-9-9-9-9-9-:-9-9-9-9-9-9-9-9*:-7-7-7-7-7-7-7-7-:-7-7-7-7-7-7-7-7-:
a:-9-9-9-9-9-9-9-9-:-9-9-9-9-9-9-9-9-:-7-7-7-7-7-7-7-7-:-7-7-7-7-7-7-7-7-:
e:-7-7-7-7-7-7-7-7-:-7-7-7-7-7-7-7-7-:-5-5-5-5-5-5-5-5-:-5-5-5-5-5-5-5-5-:
                                                     3x
e:-----------------:-----------------:-----------------:-----------------:
b:-----------------:-----------------:-----------------:-----------------:
g:-----------------:-----------9-9-9-:*----------9-9-9*:-----------------:
d:-4-4-4-4-4-4-4-4-:-4-4-4-4-4-9-9-9-:*9-9-9-9-9-9-9-9*:-9-9-9-9-9-9-9-9-:
a:-4-4-4-4-4-4-4-4-:-4-4-4-4-4-7-7-7-:-9-9-9-9-9-7-7-7-:-9-9-9-9-9-9-9-9-:
e:-2-2-2-2-2-2-2-2-:-2-2-2-2-2-------:-7-7-7-7-7-------:-7-7-7-7-7-7-7-7-:

Verse 1 w/ VERSE
Your rise and fall
Back up against the wall
What goes around is coming back and haunting you
It's time to quit
Cause you ain't worth the shit
Under my shoes or the piss on the ground

Chorus w/ CHORUS
No one loves you and you know it
Don't pretend that you enjoy it or you don't care
Cause now I wouldn't lie or tell you all the things you want to hear.
I HATE YOU I HATE YOU I HATE YOU I HATE YOU

Verse 2 w/ VERSE
I heard you're sick
Sucked on that cancer stick
A throbbing tumor and a radiation high
Shit out of luck
And now your time is up
It brings me pleasure just to know you're going to die.

Chorus

Bridge w/ INTRO
Dickhead, fuckface, cock smoking, mother fucking, asshole, dirty twat,
waste of semen, I hope you die HEY

Verse 3 w/ VERSE
Red eye, code blue
I'd like to strangle you
And watch your eyes bulge right out of your skull
When you go down
Head first into the ground
I'll stand above you just to piss on your grave

/--=[ Green Day : Nimrod : Uptight ]=------------------ ----  ---   --    -
|  Tuning: Standard (low to high: e a d g b e)
|  Tempo: Moderate
\------------------------------------------------------ ----  ---   --    -

*note: repeat 1st 4 bars only during verses*
INTRO/VERSE
e:-----------------:-----------------:-----------------:-----------------:
b:-----------------:-----------------:-----------------:-----------------:
g:-----------------:-----------------:-----------------:-----------------:
d:-4-4-4-3-3-3-4-4-:-4-3-3-3-4-4-3-3-:-4-4-4-3-3-3-4-4-:-4-3-3-3-4-4-3-3-:
a:-----------------:-----------------:-----------------:-----------------:
e:-----------------:-----------------:-----------------:-----------------:

e:-----------------:-----------------:-----------------:-----------------:
b:-----------------:-----------------:-----------------:-----------------:
g:-----------------:-----------------:-----------------:-----------6-6---:
d:-4-4-4-3-3-3-4-4-:-4-3-3-3-4-4-3-3-:-4-4-4-3-3-3-4-4-:-4-3-3-3-4-6-6---:
a:-----------------:-----------------:-----------------:-----------4-4---:
e:-----------------:-----------------:-----------------:-----------------:

BRIDGE
e:-----------------:-----------------:
b:-----------------:-----------------:
g:-----------------:-----------------:
d:-6-6-6-6-6-6-6-6-:-----------------:
a:-4-4-4-4-4-4-4-4-:-4-4-4-4-4-4-4-4-:
e:-----------------:-2-2-2-2-2-2-2-2-:
   PM-------------------------------|

CHORUS
e:-----------------:-----------------:-----------------:-----------------:
b:-----------------:-----------------:-----------------:-----------------:
g:---------------4-:---4-4-4-4-4-4-4-:---------------4-:---4-4-4-4-4-4-4-:
d:-4---4---4-4-4-4-:---4-4-4-4-4-4-4-:-4---4---4-4-4-4-:---4-4-4-4-4-4-4-:
a:-4---4---4-4-4-2-:---2-2-2-2-2-2-2-:-4---4---4-4-4-2-:---2-2-2-2-2-2-2-:
e:-2---2---2-2-2---:-----------------:-2---2---2-2-2---:-----------------:

e:-----------------:-----------------:-----------------:-----------------:
b:-----------------:-----------------:-----------------:-----------------:
g:---------------6-:-6-6-6-6-6-6-6-6-:-----------------:---4-4-x-x-6-6---:
d:-4---4---4-4-4-6-:-6-6-6-6-6-6-6-6-:-4---4---4-4-4-4-:---4-4-x-x-6-6---:
a:-4---4---4-4-4-4-:-4-4-4-4-4-4-4-4-:-4---4---4-4-4-4-:---2-2-x-x-4-4---:
e:-2---2---2-2-2---:-----------------:-2---2---2-2-2-2-:-----------------:

SOLO
e:-2-2-2-1-1-1-2-2-:-2-1-1-1-2-2-1-1-:
b:-2-2-2-2-2-2-2-2-:-2-2-2-2-2-2-2-2-:
g:-----------------:-----------------:
d:-----------------:-----------------:
a:-----------------:-----------------:
e:-----------------:-----------------:

Intro w/ INTRO/VERSE

Verse 1 w/ INTRO/VERSE
I woke up on the wrong side of the floor.
Made, made my way through the froont door.
Broke my engagement with myself.

Bridge w/ BRIDGE
Perfect picture of bad health,
another notch scratched on my bell.
The future just ain't what it used to be.

Verse 2 w/ INTRO/VERSE
I got a new start on a dead end road.
Peaked, peaked out on reaching new lows.
Owe. I paid off all my debts to myself.

Bridge w/ BRIDGE
Perfect picture of bad health,
another notch scratched on my bell.
The future's in my living room.

Chorus w/ CHORUS
Uptight, I'm a nag with a gun.
All night, suicide's last call.
I've been uptight all night.
I'm a son of a gun.

Chorus

Solo w/ SOLO & INTRO/VERSE

Chorus a few times. :)

/--=[ Green Day : Nimrod : Last Ride In ]=------------- ----  ---   --    -
|  Tuning: Standard (low to high: e a d g b e)
|  Tempo: Slowly
\------------------------------------------------------ ----  ---   --    -

VERSE
e:-----------------:-----------------:-----------------:-----------------:
b:-----------------:-----------------:-----------------:-----------------:
g:-----------------:-----------------:-----------------:-----------------:
d:-----------------:-----------------:-----------------:-----------------:
a:-2-----------2---:-0-----2-4---4-0-:-2---------------:-----------------:
e:-------2---------:-----------------:-----------------:-----------------:

e:-----------------:-----------------:-----------------:-----------------:
b:-----------------:-----------------:-----------------:-----------------:
g:-----------------:-----------------:-----------------:-----------------:
d:-----------------:-----------------:-----------------:-----------------:
a:-2-----------2---:-0-----2-4---0-4-:-2---------------:-----------------:
e:-------2---------:-----------------:-----------------:-----------------:

VERSE BASSLINE
g:-----------------:-----------------:-----------------:-----------------:
d:-----------------:-----------------:-----------------:-----------------:
a:-2-----------2---:-0-----------0---:-2-----------2---:-0-----------0---:
e:-------2---------:-------0---------:-------2---------:-------0---------:

CHORUS
e:-------0---------:-----------------:-------0---------:-----------------:
b:-----------0-----:-----------------:-----------0-----:-----------------:
g:-----------------:-----------------:-----------------:-----------------:
d:-2---------------:-4\--------------:-2---------------:-4\--------------:
a:-2---------------:-4\--------------:-2---------------:-4\--------------:
e:-0---------------:-2\--------------:-0---------------:-2\--------------:

e:-------0---------:-----------------:-----------------:-2---------------:
b:-----------0-----:-----------------:-----------------:-2---------------:
g:-----------------:-----------------:-----------------:-2---------------:
d:-2---------------:-2-----------2---:-4------------4--:-----------------:
a:-2---------------:-2-----------2---:-4------------4--:-----------------:
e:-0---------------:-0-----------0---:-2------------2--:-----------------:

CHORUS BASSLINE
g:-----------------:-----------------:-----------------:-----------------:
d:-----------------:-----------------:-----------------:-----------------:
a:-----------------:-----------------:-----------------:-----------------:
e:-0-----0---0-2-0-:-2\--------------:-0-----0---0-2-0-:-2\--------------:

g:-----------------:-----------------:-----------------:-----------------:
d:-----------------:-----------------:-----------------:-----------------:
a:-----------------:-----------------:-----------------:-----------------:
e:-0-----0---------:-0-----------0---:-2-----------2---:-2---------------:


/--=[ Green Day : Nimrod : Jinx ]=--------------------- ----  ---   --    -
|  Tuning: Standard (low to high: e a d g b e)
|  Tempo: Fast
\------------------------------------------------------ ----  ---   --    -

INTRO
e:-----------------:-----------------:-----------------:-----------------:
b:-----------------:-----------------:-----------------:-----------------:
g:---------5-5-5-7-:---7-7-7-7-7-7-7-:---------5-5-5-7-:---7-7-7-7-7-7-7-:
d:-5---5---5-5-5-7-:---7-7-7-7-7-7-7-:-5---5---5-5-5-7-:---7-7-7-7-7-7-7-:
a:-5---5---3-3-3-5-:---5-5-5-5-5-5-5-:-5---5---3-3-3-5-:---5-5-5-5-5-5-5-:
e:-3---3-----------:-----------------:-3---3-----------:-----------------:

VERSE
e:-----------------:-----------------:-----------------:-----------------:
b:-----------------:-----------------:-----------------:-----------------:
g:---------------7-:---7-7-7-7-7-7-7-:---------5-5-5---:-----------------:
d:-5---5---5-5-5-7-:---7-7-7-7-7-7-7-:-5---5---5-5-5-5-:---5-5-5---5-5-5-:
a:-5---5---5-5-5-5-:---5-5-5-5-5-5-5-:-5---5---3-3-3-5-:---5-5-5---5-5-5-:
e:-3---3---3-3-3---:-----------------:-3---3---------3-:---3-3-3---3-3-3-:

e:-----------------:-----------------:-----------------:-----------------:
b:-----------------:-----------------:-----------------:-----------------:
g:-5---5-5-5---5-5-:---5-5-5-5-5-5-5-:-----------------:-----------------:
d:-5---5-5-5---5-5-:---5-5-5-5-5-5-5-:-5---5---5-5-5-5-:---5-5-5-5-5-5-5-:
a:-3---3-3-3---3-3-:---3-3-3-3-3-3-3-:-5---5---5-5-5-5-:---5-5-5-5-5-5-5-:
e:-----------------:-----------------:-3---3---3-3-3-3-:---3-3-3-3-3-3-3-:

e:-----------------:-----------------:-----------------:-----------------:
b:-----------------:-----------------:-----------------:-----------------:
g:-5---5-5-5---5-5-:---5-5-5-5-5-5-5-:---------7-7-7-9-:---9-9-9-9-9-9-9-:
d:-5---5-5-5---5-5-:---5-5-5-5-5-5-5-:-5---5---7-7-7-9-:---9-9-9-9-9-9-9-:
a:-3---3-3-3---3-3-:---3-3-3-3-3-3-3-:-5---5---5-5-5-7-:---7-7-7-7-7-7-7-:
e:-----------------:-----------------:-3---3-----------:-----------------:

e:-----------------:-----------------:-----------------:-----------------:
b:-----------------:-----------------:-----------------:-----------------:
g:-5---5---5-5-5---:-----------------:-7-7-7-7-7-7-7-7-:-7-7-7-7-7-7-7-7-:
d:-5---5---5-5-5-3-:---3-3-3-3-3-3-3-:-7-7-7-7-7-7-7-7-:-7-7-7-7-7-7-7-7-:
a:-3---3---3-3-3-3-:---3-3-3-3-3-3-3-:-5-5-5-5-5-5-5-5-:-5-5-5-5-5-5-5-5-:
e:---------------1-:---1-1-1-1-1-1-1-:-----------------:-----------------:

CHORUS
e:-----------------:-----------------:-----------------:-----------------:
b:-----------------:-----------------:-----------------:-----------------:
g:-----------------:-5---5-5-5-5-5-5-:-7-7-7-7-7-7-7-7-:---7-7-7-7-7-7-7-:
d:-5---5-5-5-5-5-5-:-5---5-5-5-5-5-5-:-7-7-7-7-7-7-7-7-:---7-7-7-7-7-7-7-:
a:-5---5-5-5-5-5-5-:-3---3-3-3-3-3-3-:-5-5-5-5-5-5-5-5-:---5-5-5-5-5-5-5-:
e:-3---3-3-3-3-3-3-:-----------------:-----------------:-----------------:

Intro w/ INTRO

Verse 1 w/ VERSE
I fucked up again
It's all my fault
So turn m around and face the wall.
Read me my rights and tell me I'm wrong.
Until it gets into my thick skull.

Verse 2 w/ VERSE
A slap on the wrist.
A stab in the back.
Torture me, I've been a bad boy.
Nail me to the cross until you have won.
I lost before I did any wrong.

Interlude w/ INTRO

Verse 3 w/ VERSE
I'm hexed with regrets and bad luck.
Keep your distance 'cause it's rubbing off.
Or you will be damned to spend your life in hell.
Or earth with me tangled at your feet.

Verse 4 w/ VERSE
You finally met your nemesis
disguised as your fatal long lost love.
So kiss it good bye until death do we part.
You fell for a jinx for crying out loud.

Interlude w/ INTRO

Chorus w/ CHORUS
I'm a jinx hanging around you.

/--=[ Green Day : Nimrod : Haushinka ]=---------------- ----  ---   --    -
|  Tuning: Standard (low to high: e a d g b e)
|  Tempo: Fast
\------------------------------------------------------ ----  ---   --    -

INTRO
e:-----------------:-----------------:-----------------:-----------------:
b:-----------------:-----------------:-----------------:-----------------:
g:/7---------------:---------------5-:/7---------------:---------------5-:
d:/7---------------:---------------5-:/7---------------:---------------5-:
a:/5---------------:---------------3-:/5---------------:---------------3-:
e:-----------------:-----------------:-----------------:-----------------:

VERSE
e:-----------------:-----------------:-----------------:-----------------:
b:-7---------------:-8---------------:10---------------:-8---------------:
g:-------7---------:-------7---------:-------7---------:-------7---------:
d:-----------------:-----------------:-----------------:-----------------:
a:-----------------:-----------------:-----------------:-----------------:
e:-----------------:-----------------:-----------------:-----------------:

CHORUS
e:-----------------:-----------------:-----------------:-----------------:
b:-----------------:-----------------:-----------------:-----------------:
g:-7---7-7-7-7-7-7-:-5---5-5-5-5-5-5-:-----------------:-----------------:
d:-7---7-7-7-7-7-7-:-5---5-5-5-5-5-5-:-5---5-5-5-5-5-5-:-3-3-3-3---5-5---:
a:-5---5-5-5-5-5-5-:-3---3-3-3-3-3-3-:-5---5-5-5-5-5-5-:-3-3-3-3---5-5---:
e:-----------------:-----------------:-3---3-3-3-3-3-3-:-1-1-1-1---3-3---:
                                      ___________________________________
BRIDGE                               |1,2,3.                             |
e:-----------------:-----------------:-----------------:-----------------:
b:-----------------:-----------------:-----------------:-----------------:
g:*----------------:-----------------:-----------------:----------------*:
d:*9---9-9-9-9-9-9-:-7---7-7-7-7-7-7-:-4/5-5-5-5-5-5-5-:-4/5-5-5-5-5-5-5*:
a:-9---9-9-9-9-9-9-:-7---7-7-7-7-7-7-:-4/5-5-5-5-5-5-5-:-4/5-5-5-5-5-5-5-:
e:-7---7-7-7-7-7-7-:-5---5-5-5-5-5-5-:-2/3-3-3-3-3-3-3-:-2/3-3-3-3-3-3-3-:
  ________________
 |4.
e:-----------------:-----------------:-----------------:-----------------:
b:-----------------:-----------------:-----------------:-----------------:
g:-----------------:-----------------:-----------------:-----------------:
d:-----------------:-----------------:-----------5-5-5-:-5-5-5-5-5-5-5-5-:
a:-5-5-5-5-5-5-5-5-:-5-5-5-5-5-5-5-5-:-5-5-5-5-5-5-5-5-:-5-5-5-5-5-5-5-5-:
e:-3-3-3-3-3-3-3-3-:-3-3-3-3-3-3-3-3-:-3-3-3-3-3-3-3-3-:-3-3-3-3-3-3-3-3-:
   PM-------------------------------------------|

INTERLUDE
e:-----------------:-----------------:
b:-----------------:-----------------:
g:-------7-7---x---:-----------------:
d:-7---x-7-7---x-5-:---5---5-5-5-5-5-:
a:-7---x-5-5---x-5-:---5---5-5-5-5-5-:
e:-5---x---------3-:---3---3-3-3-3-3-:

SOLO
e:-----------------:-----------------:-----------------:-----------------:
b:-5-5-7-7-8-8-7-7-:-5-5-7-7-8-8-7-7-:-4-4-5-5-7-7-5-5-:-4-4-5-5-7-7-5-5-:
g:-5-5-5-5-5-5-5-5-:-5-5-5-5-5-5-5-5-:-4-4-4-4-4-4-4-4-:-4-4-4-4-4-4-4-4-:
d:-----------------:-----------------:-----------------:-----------------:
a:-----------------:-----------------:-----------------:-----------------:
e:-----------------:-----------------:-----------------:-----------------:

Intro w/ INTRO, VERSE

Verse 1 w/ INTRO, VERSE
Haushinka is a girl with a peculiar name.
I met her on the eve of my birthday.
Did she know.
Did she know, before she went away.
Does she know?
But it's too damn late.

Chorus w/ CHORUS
This girl has gone far away.
Now she's gone.

Verse 2 w/ INTRO, VERSE
All I have now is a memory to date.
A cheap hat and cigarettes, and a peculiar name.
I didn't know.
I didn't know, before she went away.
I know now.
I know now, and it's too damn late.

Chorus

Bridge w/ BRIDGE
Will she ever find her way?
I'm too damn young to be late, but am I?
Yet again, I'm kicking myself, and I'll be here in battle scars,
waiting for you.
Waiting for you now.

Interlude w/ INTERLUDE

Solo w/ SOLO

Chorus

/--=[ Green Day : Nimrod : Walking Alone ]=------------ ----  ---   --    -
|  Tuning: Standard (low to high: e a d g b e)
|  Tempo: Moderate
\------------------------------------------------------ ----  ---   --    -

INTRO/INTERLUDE
e:-----------------:-----------------:-----------------:-----------------:
b:/8---------------:-----------------:/8---------------:-----------------:
g:-----7-----9--p8-:h9~~~~~~~--------:-----7-----9--p8-:h9~~~~~~~--------:
d:-------9---------:-----------------:-------9---------:-----------------:
a:-----------------:-----------------:-----------------:-----------------:
e:-----------------:-----------------:-----------------:-----------------:
 : Harmonica Arr. For Gtr.                                               :
e:-----------------:-----------------:-----------------:-----------------:
b:-----------------:-----------------:-----------------:-----------------:
g:-----------------:-----------------:-----------------:-----------------:
d:-5-5-5-5-5-5-5-5-:-2-2-2-2-2-2-2-2-:-5-5-5-5-5-5-5-5-:-2-2-2-2-2-2-2-2-:
a:-5-5-5-5-5-5-5-5-:-2-2-2-2-2-2-2-2-:-5-5-5-5-5-5-5-5-:-2-2-2-2-2-2-2-2-:
e:-3-3-3-3-3-3-3-3-:-0-0-0-0-0-0-0-0-:-3-3-3-3-3-3-3-3-:-0-0-0-0-0-0-0-0-:

VERSE
e:-----------------:-----------------:-----------------:-----------------:
b:-----------------:-----------------:-----------------:-----------------:
g:*----------------:-----------------:-5-5-5-5-5-5-5-5-:-7-7-7-7-7-7-7-7*:
d:*5-5-5-5-5-5-5-5-:-2-2-2-2-2-2-2-2-:-5-5-5-5-5-5-5-5-:-7-7-7-7-7-7-7-7*:
a:-5-5-5-5-5-5-5-5-:-2-2-2-2-2-2-2-2-:-3-3-3-3-3-3-3-3-:-5-5-5-5-5-5-5-5-:
e:-3-3-3-3-3-3-3-3-:-0-0-0-0-0-0-0-0-:-----------------:-----------------:

CHORUS
e:-----------------:-----------------:-----------------:-----------------:
b:-----------------:-----------------:-----------------:-----------------:
g:*5-5-5-5-5-5-5-5-:-7-7-7-7-7-7-7-7-:-5-5-5-5-5-5-5-5-:-7-7-7-7-7-7-7-7*:
d:*5-5-5-5-5-5-5-5-:-7-7-7-7-7-7-7-7-:-5-5-5-5-5-5-5-5-:-7-7-7-7-7-7-7-7*:
a:-3-3-3-3-3-3-3-3-:-5-5-5-5-5-5-5-5-:-3-3-3-3-3-3-3-3-:-5-5-5-5-5-5-5-5-:
e:-----------------:-----------------:-----------------:-----------------:

e:-----------------:-----------------:-----------------:-----------------:
b:-----3-------1---:-------0---------:-----------------:-----------------:
g:-----4-------2---:-------1---------:-5-5-5-5-5-5-5-5-:-7-7-7-7-7-7-7-7-:
d:-5---5---3---3---:-2-2---2---------:-5-5-5-5-5-5-5-5-:-7-7-7-7-7-7-7-7-:
a:-5-------3-------:-2-2-------------:-3-3-3-3-3-3-3-3-:-5-5-5-5-5-5-5-5-:
e:-3-------1-------:-0-0-------------:-----------------:-----------------:

SOLO
e:-----------------:-----------------:-----------------:-----------------:
b:-8---------------:-----------------:-----------------:-----------------:
g:*----7-----------:-----------------:-----9--12---9---:----11--14--11--*:
d:*------9---9b~10~:r9-------------9-:10------------10-:12------------12*:
a:-----------------:-----------------:-----------------:-----------------:
e:-----------------:-----------------:-----------------:-----------------:

Intro w/ INTRO/INTERLUDE

Verse 1 w/ VERSE
Come together like a foot in a shoe.
Only this time I think I stuck my foot in my mouth.
Thinking out loud and acting in vain.
Knocking over anyone that stands in my way.

Chorus w/ CHORUS
Sometimes I need to apologize.
Sometimes I need to admit that I ain't right.
Sometimes I should just keep my mouth shut,
or only say hello.
Sometimes I still feel I'm walking alone.

Interlude w/ INTRO/INTERLUDE

Verse 2 w/ VERSE
Walk on eggshells on my old stomping ground.
Yet there's really no one left, that's hanging around.
Isn't that another familiar face?
Too drunk to figure out they're fading away.

Interlude

Solo w/ VERSE & SOLO

Chorus

Interlude


/--=[ Green Day : Nimrod : Reject ]=------------------- ----  ---   --    -
|  Tuning: Standard (low to high: e a d g b e)
|  Tempo: Fast
\------------------------------------------------------ ----  ---   --    -

VERSE
e:-----------------:-----------------:-----------------:-----------------:
b:-----------------:-----------------:-----------------:-----------------:
g:-4-4-4-4-4-4-4-4-:-4-4-4-4-4-4-4-4-:-----------------:-----------------:
d:-4-4-4-4-4-4-4-4-:-4-4-4-4-4-4-4-4-:-6-6-6-6-6-6-6-6-:-6-6-6-6-6-6-6-6-:
a:-2-2-2-2-2-2-2-2-:-2-2-2-2-2-2-2-2-:-6-6-6-6-6-6-6-6-:-6-6-6-6-6-6-6-6-:
e:-----------------:-----------------:-4-4-4-4-4-4-4-4-:-4-4-4-4-4-4-4-4-:

e:-----------------:-----------------:-----------------:-----------------:
b:-----------------:-----------------:-----------------:-----------------:
g:-6-6-6-6-6-6-6-6-:-6-6-6-6-6-6-6-6-:-----------------:-----------------:
d:-6-6-6-6-6-6-6-6-:-6-6-6-6-6-6-6-6-:-4-4-4-4-4-4-4-4-:-4-4-4-4-4-4-4-4-:
a:-4-4-4-4-4-4-4-4-:-4-4-4-4-4-4-4-4-:-4-4-4-4-4-4-4-4-:-4-4-4-4-4-4-4-4-:
e:-----------------:-----------------:-2-2-2-2-2-2-2-2-:-2-2-2-2-2-2-2-2-:

CHORUS
e:-----------------:-----------------:-----------------:-----------------:
b:-----------------:-----------------:-----------------:-----------------:
g:*----------------:-----------------:-4-4-4-4-4-4-4-4-:-4-4-4-4-4-4-4-4*:
d:*2-2-2-2-2-2-2-2-:-5-5-5-5-5-5-5-5-:-4-4-4-4-4-4-4-4-:-4-4-4-4-4-4-4-4*:
a:-2-2-2-2-2-2-2-2-:-5-5-5-5-5-5-5-5-:-2-2-2-2-2-2-2-2-:-2-2-2-2-2-2-2-2-:
e:-0-0-0-0-0-0-0-0-:-3-3-3-3-3-3-3-3-:-----------------:-----------------:

e:-----------------:-----------------:-----------------:-----------------:
b:-----------------:-----------------:-----------------:-----------------:
g:---------------4-:---4-4-4-4-4-4-4-:-----------------:-----------------:
d:-2-------------4-:---4-4-4-4-4-4-4-:-2-------------6-:---6-6-6-6-6-6-6-:
a:-2---2-2-2-2-2-2-:---2-2-2-2-2-2-2-:-2---2-2-2-2-2-6-:---6-6-6-6-6-6-6-:
e:-0---0-0-0-0-0---:-----------------:-0---0-0-0-0-0-4-:---4-4-4-4-4-4-4-:
       PM-------|                          PM-------|
e:-----------------:-----------------:-----------------:-----------------:
b:-----------------:-----------------:-----------------:-----------------:
g:-----------------:-----------------:-----------------:-----------------:
d:-5-5-5-5-5-5-5-5-:-5-5-5-5-5-5-5-5-:-4-4-4-4-4-4-4-4-:-4-4-4-4-4-4-4-4-:
a:-5-5-5-5-5-5-5-5-:-5-5-5-5-5-5-5-5-:-4-4-4-4-4-4-4-4-:-4-4-4-4-4-4-4-4-:
e:-3-3-3-3-3-3-3-3-:-3-3-3-3-3-3-3-3-:-2-2-2-2-2-2-2-2-:-2-2-2-2-2-2-2-2-:

INTERLUDE
e:-----------------:-----------------:
b:-----------------:-----------------:
g:-------------9---:-----------------:
d:-9-9-9-9-9---9---:-9-9-9-9-9---7---:
a:-9-9-9-9-9---7---:-9-9-9-9-9---7---:
e:-7-7-7-7-7-------:-7-7-7-7-7---5---:

OUTRO
e:-----------------:-----------------:
b:-----------------:-----------------:
g:-------------4---:-4-4-4-4---------:
d:-2---2-5---5-4---:-4-4-4-4---------:
a:-2---2-5---5-2---:-2-2-2-2---------:
e:-0---0-3---3-----:-----------------:

Verse 1 w/ VERSE
Who the hell are you to tell me what I am and what's my master plan.
What makes you think that it includes you?
Self-righteous wealth
Stop flattering yourself.

Chorus w/ CHORUS
So when the smoke clears here I am,
Your reject all-american.
Sucking up your social sect, making you a nervous wreck.
To hell and back and hell again I've gone.
You're not my type. Not my type.

Verse w/ VERSE
What's the difference between you and me?
I do what I want, and you do what you're told.
So listen up, shut the hell up.
It ain't no big deal and I'll see you in hell.

Chorus

Chorus w/ CHORUS
So when the smoke clears here I am,
Your reject all-american.
Falling from grace, right on my face.
To hell and back and hell again I've gone.

Outro w/ OUTRO

/--=[ Green Day : Nimrod : Take Back ]=---------------- ----  ---   --    -
|  Tuning: Standard (low to high: e a d g b e)
|  Tempo: Quite Fast
\------------------------------------------------------ ----  ---   --    -

VERSE
e:-----------------:-----------------:
b:-----------------:-----------------:
g:-----------------:-----------------:
d:-9---9---9-9-9-7-:---7-710--101010-:
a:-9---9---9-9-9-7-:---7-710--101010-:
e:-7---7---7-7-7-5-:---5-5-8---8-8-8-:

CHORUS
e:-----------------:-----------------:
b:-----------------:-----------------:
g:-8---8---8-8-8---:-------9---9-9-9-:
d:-8---8---8-8-8-8-:---8-8-9---9-9-9-:
a:-6---6---6-6-6-8-:---8-8-7---7-7-7-:
e:---------------6-:---6-6-----------:

VERSE 1 w/ VERSE
You pushed me once too far again,
I'd love to break your fucking teeth.
Stick a knife in the center of your back.
You better grow some eyes in the back of your head.
I fight dirty, just like your looks.
Can't take, can't take, I can't take anymore.

CHORUS w/ CHORUS
Take back, take back, take.

VERSE 2 w/ VERSE
The taste of bad blood on the tip of my tongue.
An eye for an eye.
Gun for a gun.
Cold-cocked and I'm taking back what's mine.
Expect it when you're least expecting it.
No loss of love, the smell of regret.
Lights out.
Can't take anymore.

CHORUS x2

INTERLUDE w/ VERSE

Shite!

/--=[ Green Day : Nimrod : King For A Day ]=----------- ----  ---   --    -
|  Tuning: Standard (low to high: e a d g b e)
|  Tempo: Upbeat
\------------------------------------------------------ ----  ---   --    -

VERSE
e:-----------------:-----------------:
b:-----------------:-----------------:
g:-----------------:-----------------:
d:-9-x-----9-x-----:-6-x-----6-x-----:
a:-7-x-9-x-7-x-9-x-:-4-x-6-x-4-x-6-x-:
e:-----7-x-----7-x-:-----4-x-----4-x-:

INTERLUDE
e:-----------------:-----------------:
b:-----------------:-----------------:
g:-----------------:-----------------:
d:-----------------:-----------------:
a:-7-7-7-7-7-7-7-7-:-9-9-9-9-9-9-9-9-:
e:-5-5-5-5-5-5-5-5-:-7-7-7-7-7-7-7-7-:

CHORUS
e:-----------------:-----------------:
b:-----------------:-----------------:
g:-----------------:-----------------:
d:-9-x-----9-x-----:-6-6-6-6-6-6-6-6-:
a:-7-x-9-x-7-x-9-x-:-4-4-4-4-4-4-4-4-:
e:-----7-x-----7-x-:-----------------:

Verse 1 w/ VERSE
Started at the age of 4.
My mother went to the grocery store.
Went sneaking through her bedroom door.
To find something in a size 4.

Bridge w/ INTERLUDE
Sugar and spice and everything nice wasn't made for only girls.
GI Joe in panty hose is making room for the one and only

Chorus w/ CHORUS
King for a day, princess by dawn.
King for a day, in a leather thong.
King for a day, princess by dawn.

Post-Chorus w/ INTERLUDE
Just wait 'till all the guys get a load of me.

Verse 2 w/ VERSE
My daddy threw me in therapy
He thinks I'm not a real man
Who put the drag in the drag queen?
Don't knock it until you tried it

Bridge
Chorus
Post-Chorus
Interlude w/ VERSE
Bridge
Chorus x2
Post-Chorus x3
Outro w/ VERSE


/--=[ Green Day : Nimrod : Good Riddance ]=------------ ----  ---   --    -
|  Tuning: Standard (low to high: e a d g b e)
|  Tempo: Slowly
\------------------------------------------------------ ----  ---   --    -

G    : 3 2 0 0 3 X
C9   : X 3 2 0 3 X
D    : X X 0 2 3 2
Em   : 0 2 2 0 0 0
C    : X 3 2 0 1 X
G(2) : 3 2 0 0 0 3

INTRO FUCKUP
e:-----------------:-----------------:
b:-----------------:-----------------:
g:-------0---------:-------0---------:
d:-----------0-----:-----------0-----:
a:-----------------:-----------------:
e:-3---3-----------:-3---3-----------: fuck.

INTRO
G C9 D 2x

VERSE 1
G                                   C9              D
Another        turning point, a fork   stuck in the road.
Time grabs you by the  wrist, directs you where to  go.

Em                  D                 C                    D
So   make the best      of  this test   and don't  ask why.
It's not a    question, but a   lesson     learned in      time.

CHORUS
     Em                     G     Em                  G
It's something unpredictable, but in the end is right.
  Em                   D
I hope you had the time of your life. G C9 D 2x

VERSE 2
G                                 C9               D
So take  the photographs and still  frames in  your mind.
  Hang it    on  a shelf in good    health and good time.

Em            D                  C         G
Tatoos of     memories  and dead   skin on trial.
FOr what it's worth, it was worth all   the      while.

Chorus:
     Em                     G     Em                  G
It's something unpredictable, but in the end is right.
  Em                   D
I hope you had the time of your life.

Interlude:

G    C9 D    4x
Em D C  G(2) 2x

Chorus:
     Em                     G     Em                  G
It's something unpredictable, but in the end is right.
  Em                   D
I hope you had the time of your life. G C9 D 2x
     Em                     G     Em                  G
It's something unpredictable, but in the end is right.
  Em                   D
I hope you had the time of your life. G C9 D G C9 D G

/--=[ Green Day : Nimrod : Prosthetic Head ]=---------- ----  ---   --    -
|  Tuning: Standard (low to high: e a d g b e)
|  Tempo: Fast
|  Note: I think I have the whole bass figured out so I included that as
|        well.
\------------------------------------------------------ ----  ---   --    -

INTRO
e:-----------------:-----------------:
b:---9-------------:---7-------------:
g:-9-9-------------:-7-7-------------:
d:-9-9-x-9---9-9-9-:-7-7-x-7---7-7-7-:
a:-7-7-x-9---9-9-9-:-5-5-x-7---7-7-7-:
e:-----x-7---7-7-7-:-----x-5---5-5-5-:

VERSE
e:-----------------:-----------------:
b:---9-------------:---7-------------:
g:-9-9-------------:-7-7-------------:
d:-9-9-x-9---9-9-9-:-7-7-x-7---7-7-7-:
a:-7-7-x-9---9-9-9-:-5-5-x-7---7-7-7-:
e:-----x-7---7-7-7-:-----x-5---5-5-5-:
 :                                   :
g:-----------------:-----------------:
d:-----------------:-----------------:
a:-7-7-------------:-5-5-------------:
e:-------7---7-7-7-:-------5---5-7-5-:

PRE-CHORUS
e:-----------------:-----------------:
b:-----------------:-----------------:
g:-----------------:-------------9---:
d:-9---9---9---9---:-9---9---9---9---:
a:-9---9---9---9---:-9---9---9---7---:
e:-7---7---7---7---:-7---7---7-------:
 :                                   :
g:-----------------:-----------------:
d:-----------------:-----------------:
a:-----------------:-------------7---:
e:-7---7---7---7---:-7---7---7-------:

CHORUS
e:-----------------:-----------------:
b:-----------------:-----------------:
g:-9-9-------------:-7-7-------------:
d:-9-9---9---9-9-9-:-7-7---7---7-7-7-:
a:-7-7---9---9-9-9-:-5-5---7---7-7-7-:
e:-------7---7-7-7-:-------5---5-5-5-:
 :                                   :
g:-----------------:-----------------:
d:-----------------:-----------------:
a:-7-7-------------:-7-5-------------:
e:-------7---7-7-7-:-----7-5---5-7-5-:

INTERLUDE
e:-----------------:-----------------:-----------------:-----------------:
b:---------9-------:-----------------:-----------------:-7---------------:
g:*----x-9-9---x---:-----------------:-------------x-7-:-7--------------*:
d:*9---x-9-9---x-7-:-7---x-4-4---x-9-:-9---x-7-7---x-7-:-7---x-7-7-7-7-7*:
a:-9---x-7-7---x-7-:-7---x-4-4---x-9-:-9---x-7-7---x-5-:-5---x-7-7-7-7-7-:
e:-7-------------5-:-5---x-2-2---x-7-:-7---x-5-5-------:-----x-5-5-5-5-5-:
 :                                                                       :
g:-----------------:-----------------:-----------------:-----------------:
d:-----------------:-----------------:-----------------:-----------------:
a:-------7-7-------:-----------------:---------------5-:-5---------------:
e:-7-------------5-:-5-----2-2-----7-:-7-----5-5-------:-------5-5-5-5-5-:

e:-----------------:-----------------:
b:-7-7-7-7-7-7-7-7-:-7-7-7-7-7-7-7-7-:
g:-8-8-8-8-8-8-8-8-:-8-8-8-8-8-8-8-8-:
d:-9-9-9-9-9-9-9-9-:-9-9-9-9-9-9-9-9-:
a:-9-9-9-9-9-9-9-9-:-9-9-9-9-9-9-9-9-:
e:-7-7-7-7-7-7-7-7-:-7-7-7-7-7-7-7-7-:
 :                                   :
g:-----------------:-----------------:
d:-----------------:-----------------:
a:-----------------:-----------------:
e:-7-7-7-7-7-7-7-7-:-7-7-7-7-7-7-7-7-:

Verse 1 w/ VERSE
I see you, down in the front line.
Such a sight for sore eyes, you're a suicide makeover.
Plastic eyes, lookin' through a numbskull.
Self effaced.
What's his face.
You erase yourself so shut up.
You don't let up.

Pre-Chorus w/ PRE-CHORUS
You have a growth that must be treated.
like a severed severe pain in the neck.
You can smell it but you can't see it.
No explanation identified 'cause

Chorus w/ CHORUS
you don't know.
You don't say. And you got no reply.

Verse 2 w/ VERSE
Hey you, where did you come from.
Got a head full of lead, you're an inbred bastard son.
Do or die, no reply, don't deny that you're synthetic.
You're pathetic.

Pre-chorus
Chorus X2
Interlude w/ INTERLUDE
Verse 1
Chorus X2