Green Day-The Grouch

VERSE:
e|--------------|--------------|--------------|-----------|
B|--------------|--------------|--------------|-----------|
G|-----1-----7--|-----1--7--1--|-----1-----7--|-----1-----|
D|--7--2--7--7--|--7--2--7--2--|--7--2--7--7--|--7--2--7--|
A|--7--2--7--5--|--7--2--5--2--|--7--2--7--5--|--7--2--7--|
E|--5--0--5-----|--5--0-----0--|--5--0--5-----|--5--0--5--|
 |  A  E  A  D  |  A  E  D  E  |  A  E  A  D  |  A  E  A  |

CHORUS:
e|-----------------------------------------
B|-----------------------------------------
G|----7-7-----1-1------7-7-----9-9-9-------
D|-4--7-7--7--2-2---4--7-7--7--9-9-9-------
A|-4--5-5--7--2-2---4--5-5--7--7-7-7-------
E|-2-------5--0-0---2-------5--------------

   F# D    A  E                E2

SOLO:
e|---------------------------------------------------------------
B|---------------------------------------------------------------
G|---9--9--9--9--9-11--11--11-9--9--9--9--9--9-7--7--7-9-9--9----
D|---------------------------------------------------------------
A|---------------------------------------------------------------
E|---------------------------------------------------------------

e|---------------------------------------------------
B|---------------------------------------------------
G|---4--4/6-6-6---4--4/6-6-7-7--6--9--7--6--4--2-----
D|---------------------------------------------------
A|---------------------------------------------------
E|---------------------------------------------------

e|-----------------------------------------------------------------
B|-----------------------------------------------------------------
G|---4/6--6-6--7--7-7--6--6-6--4--4--4/6--6-6--7--7-7--6--6-6-6-4--
D|-----------------------------------------------------------------
A|-----------------------------------------------------------------
E|-----------------------------------------------------------------

e|-----------------------------------------------------------------
B|-----------------------------------------------------------------
G|---4/6--6-6--7--7-7--6--6-6--4--4--4/6--6-6--7--7-7--6--6-6-6-6--
D|-----------------------------------------------------------------
A|-----------------------------------------------------------------
E|-----------------------------------------------------------------

e|--------------------------------------------
B|--------------------------------------------
G|---7/9-9-9-9-9-9/11-11-11-11-11/13-13-13-13-
D|--------------------------------------------
A|--------------------------------------------
E|--------------------------------------------

LYRICS:

Verse:
A         E              A       D
  I was a young boy that had big plans
A         E            D          E
  Now I'm just another shitty old man
A              E         A         D
  I don't have fun and I hate everything
      A          E          A
  The world owes me so fuck you

Verse:
Glory days don't mean shit to me
I drank a six-pack of apathy
Life's a bitch and so am I
The world owes me so fuck you

Chorus:
F#       D           A          E
  Wasted youth and a fistful of ideals
F#        D             A               E2
  I had a young and optimistic point of view

  Wasted youth and a fistful of ideals
  I had a young and optimistic point of view

Verse:
I've decomposed yet my gut's getting fat
Oh my god, I'm turning out like my dad
I'm always rude, I've got a bad attitude
The world owes me so fuck you

The wife's a nag and the kid's fucking up
I don't have sex 'cause I can't get it up
I'm just a grouch sitting on the couch
The world owes me so fuck you

Chorus:
Wasted youth and a fistful of ideals
I had a young and optimistic point of view
Wasted youth and a fistful of ideals
I had a young and optimistic point of view

Solo:
      Play one set of verse chords
      and a set of chorus chords

Verse:
I was a young boy that had big plans
Now I'm just another shitty old man
I don't have fun and I hate everything
The world owes me so fuck you

Glory days don't mean shit to me
I drank a six-pack of apathy
Life's a bitch and so am I
    A          E          A
The world owes me so fuck you
    A          E          A
The world owes me so fuck you
    A          E          D       A 
The world owes me so fuck you