Green Day-Welcome To Paradise

Intro
----------------------------------------------
----------------------------------------------
-8-6------------------------------------------
-8-6-6----------------------------------------
-6-4-6----------------------------------------
-----4----------------------------------------

**********************************************
A gunshot rings...
----------------------------------------------
----------------------------------------------
-8-6-8----------------------------------------
-8-6-8----------------------------------------
-6-4-6----------------------------------------
----------------------------------------------

Another urchin snaps...
----------------------------------------------
----------------------------------------------
-8-6------------------------------------------
-8-6-4-8--------------------------------------
-6-4-4-8--------------------------------------
-----2-6--------------------------------------
These two segments blocked of are repeated
**********************************************
**********************************************
Chorus

Pay attention to
----------------------------------------------
----------------------------------------------
-8-6---4--------------------------------------
-8-6-6-4--------------------------------------
-6-4-6-2--------------------------------------
-----4----------------------------------------

Some call it..
----------------------------------------------
----------------------------------------------
-8-6------------------------------------------
-8-6-8----------------------------------------
-6-4-8----------------------------------------
-----6----------------------------------------
These two segments blocked of are repeated
**********************************************

Solo

----------------------------------------------
-x-x-8-x-x-11-x-x-10-x-x-9-x-x----------------
-x-x-8-x-x-11-x-x-10-x-x-9-x-x----------------
-x-x-8-x-x-11-x-x-10-x-x-9-x-x----------------
----------------------------------------------
----------------------------------------------
This is also repeated.