Green Day - Wake Me Up When September Ends

Intro
e|----------------|----------------|----------------|----------------|
B|----3-----3-----|----3-----3-----|----3-----3-----|----3-----3-----|
G|--0-----0-------|--0-----0-------|--0-----0-------|--0-----0-------|
D|5-----5---------|5-----5---------|5-----5---------|5-----5---------|
A|----------------|----------------|----------------|----------------|
E|----------------|----------------|----------------|----------------|

Verse
 <-----------------------------fig 1------------------------------->
|----------------|----------------|----------------|----------------|
|----3-----3-----|----3-----3-----|----3-----3-----|----3-----3-----|
|--0-----0-------|--0-----0-------|--0-----0-------|--0-----0-------|
|5-----5---------|4-----4---------|2-----2---------|0-----0---------|
|----------------|----------------|----------------|----------------|
|----------------|----------------|----------------|----------------|

fig 1
Summer has come and passed
The innocent can never last
C               Cm        G
Wake me up when September ends

fig 1
Like my fathers' come to pass
Seven years has gone so fast
C               Cm        G    G/F#
Wake me up when September ends

Bridge
 Em             Bm
Here comes the rain again
C                G     G/F#
Falling from the stars
Em             Bm
Drenched in my pain again
C               D
Becoming who we are

1/2 verse

Intro

Verse

Bridge

Verse

Solo                                                                            1st time only
|-------------------------|-------------------------|-------------------------|-------------------------|
|-------12-------12----12-|-------12-------12----12-|-------13-------13----12-|-15-15-15-15-15-15-15-15-|
|-12-12----12-12----12----|-11-11----11-11----11----|-12-12----12-12----12----|-12-12-12-12-11-11-11-11-|   x2
|-------------------------|-------------------------|-------------------------|-------------------------|

|-------------------------|-------------------------|
|-15-15-15-15-15-15-15-15-|-15-15-15-15-15-15-15-15-|
|-12-12-12-12-12-12-12-12-|-11-11-11-11-11-11-11-11-| x2
|-------------------------|-------------------------| 

Intro

Verse

C               Cm        G
Wake me up when September ends   x3

http://www.sparkystabs.co.uk