Human League - Don't You Want Me

This is all keyboard arranged for guitar as there is no guitar part on the song.

Intro
Am     F   Am
   PM-----------------------------|
E|---------------------------------|
B|---------------------------------|
G|-5-5-5-5-5-5-5-5-5-5-5-5-5-5-5-5-|
D|---------------------------------|
A|---------------------------------|
E|---------------------------------|

Verse
 F               Gsus4  G         F        C       G
--------------|-----------------|----------------|---------------|
--------------|-----------------|----------------|---------------|
-5------------|--9----7----7-5--|----------5--7--|---------7--5--|
-7------------|-10----9----9-7--|----------5--9--|---------9--7--|
--------------|-----------------|----------------|---------------|
--------------|-----------------|----------------|---------------|

You were working as a waitress in a cocktail bar
when I met you
I picked you out I shook you up and turned you around
turned you into someone new
Now five years later on youíve got the world at your feet
success has been so easy for you
But donít forget itís me who put you where you are now
and I can put you back down too

Bridge
 Am                Em               F               Dm      G
-----------------|----------------|---------------|-----------------|
-----------------|----------------|---------------|-----------------|
--9----------9-9-|---------9--10--|---------10----|-10------9---9---|
-10---------10-9-|---------9--10--|---------10----|-10-----10---9---|
-----------------|----------------|---------------|-----------------|
-----------------|----------------|---------------|-----------------|

Am               Em
Donít, donít you want me
    F                              Dm                  G
You know I canít believe it when I hear that you wonít see me
Am               Em
Donít, donít you want me
    F                                 Dm                 G
You know I donít believe you when you say that you donít need me

Pre-chorus
 Am             Bm              C              E
--------------|--------------|---------------|--------------|
--------------|--------------|---------------|-9------------|
-9------------|-7------------|--9------------|-9------------|
-7------------|-9------------|-10------------|--------------|
--------------|--------------|---------------|--------------|
--------------|--------------|---------------|--------------|

Am                              Bm
Trust me and youíll find if you think youíll change your mind
    C                           E
You better change it back or we will both be sorry

Chorus
F                       G
Donít you want me baby, donít you want me oh ohohoh
F                       G
Donít you want me baby, donít you want me oh ohohoh

Verse
I was working as a waitress in a cocktail bar
that mush is true
But even then I knew Iíd find a much better place
either with or without you
The five years we have had, had been such good times
I still love you
But now I think its time I live my life on my own
I guess itís just what I must do 

Bridge

Pre-chorus

Chorus

Interlude w/intro

Chorus to fade