The Killers - When You Were Young

Tuning: Eb Ab Db Gb Bb Eb

F		x33x1x
G		x55x3x
Am		x77x5x
C		x 10 10 x 8 x
C(15)		x 15 14 xxx
Dm		x57765
Em		x79987
G5    	x 10 12 12 xx
F5		x 8 10 10 xx
E5		x799xx
D5		x577xx
C5		x355xx
B5		x244xx
A5		x022xx
A5(12)	x 12 14 14 xx

Intro
|--10----------|--------------|
|--10----------|-----x--x-----|
|---0----------|-----x--x-----|
|---7----------|-----x--x-----|
|---8----------|--------------|
|--------------|--------------|

F  G  Am  C     F

   F                  G  Am       C                   F
|-------------------|-----------|-------------------|-----------|
|---------10--8-----|-----------|---------10--8-----|-----------|
|-----5-------------|-----------|-----5-------------|-----------|
|--7--------------8-|-----------|--7--------------7-|-----------|
|-------------------|-----------|-------------------|-----------|
|-------------------|-----------|-------------------|-----------|

NC
You sit there in your heart-ache
Waiting on some beautiful boy to
To save you from your old ways                          
You play forgiveness
Watch it now Here he comes

  F           G           Am           C              F
|----------------------------------------------------------------|
|------10-----------12----------13-----------13-----------10-----|
|-------0-----------0--------------0----------0------------0-----|
|---10-----------12----------14----14-----14------------7--------|
|-8-----------10----------12-----------15-------15\---8----------|
|----------------------------------------------------------------|
He doesnt look a thing like Je-sus                     
But he talks like a gentleman
Like you imagined

     F        G Am   C       F 
When you were young

(PM)
F5            
Can we climb this mountain
G5      A5(12)
I dont know
C5(15)           F5
Higher now than ever before
F5                          G5      A5(12) 
I know we can make it if we take it slow
C5(15)
Let's take it easy
F5
Easy now,  watch it go

  F           G           Am           C              F
|----------------------------------------------------------------|
|------10-----------12----------13-----------13-----------10-----|
|-------0-----------0--------------0----------0------------0-----|
|---10-----------12----------14----14-----14------------7--------|
|-8-----------10----------12-----------15-------15\---8----------|
|----------------------------------------------------------------|
We're burning down the highway sky-line
On the back of a hurricane
That started turning

     F          G  Am     C   F
When you were   young
     F          G  Am     C   F
When you were   young

  F           G           Am           C              F
|----------------------------------------------------------------|
|------10-----------12----------13-----------13-----------10-----|
|-------0-----------0--------------0----------0------------0-----|
|---10-----------12----------14----14-----14------------7--------|
|-8-----------10----------12-----------15-------15\---8----------|
|----------------------------------------------------------------|
And sometimes you close your eyes
And see the place where you used to live
     F   G
When you   were young

   F G Am  C           F
|----------------------------------------------|
|--17-(x20)------------------------------------|
|------------12-12-12--14--14-14-14-14-14-14-14|
|----------------------------------------------|
|----------------------------------------------|
|----------------------------------------------|

  F           G     Am    C            F
|-------17-15-------------------17-15------|
|----13----------17----------13------------|
|-14----------16----17----14-----------14--|
|------------------------------------------|
|------------------------------------------|
|------------------------------------------|

F5 E5 D5 C5 C5-B5-A5  G

             Dm
They say the devil's water It ain't so sweet
    F                        Am
You dont have to drink right now
Em                   Am
But you can dip your feet
G
Every once in a little while

   F G Am  C          F
|--------------------------------------------|
|--17-(x20)----------------------------------|
|------------12-12-12-14-14-14-14-14-14-14-14|
|--------------------------------------------|
|--------------------------------------------|
|--------------------------------------------|

   F G Am  C          F
|--------------------------------------------|
|--20-(x20)----------------------------------|
|------------12-12-12-14-14-14-14-14-14-14-14|
|--------------------------------------------|
|--------------------------------------------|
|--------------------------------------------|

    F                 G     Am
You sit there in your heart-ache
C               F
Waiting on some beautiful boy to
F                     G   Am
To save you from your old ways
C                           
You play forgiveness
F
Watch it now Here he comes

   G
He doesnt look a thing like Jesus
    C                        B5
But he talks like a gentleman
Am
Like you imagined
G    F        G Am  
When you were young         
C       
(talks like a gentleman)
F
(like you imagined)
F             G     Am    C            F
When you were young
|-------17-15-------------------17-15------|
|----13----------17----------13------------|
|-14----------16----17----14-----------14--|
|------------------------------------------|
|------------------------------------------|
|------------------------------------------|
F             G     Am    C            F
I said he doesnt look a thing like Jesus
|-------17-15-------------------17-15------|
|----13----------17----------13------------|
|-14----------16----17----14-----------14--|
|------------------------------------------|
|------------------------------------------|
|------------------------------------------|
F             G     Am    C            F
He doesnt look a thing like Jesus
|-------17-15-------------------17-15------|
|----13----------17----------13------------|
|-14----------16----17----14-----------14--|
|------------------------------------------|
|------------------------------------------|
|------------------------------------------|
                     F5        E5 D5 C5 C5-B5-A5  G
But more than you'll ever know