Kings of Leon - Use Somebody

Intro
C            C/E     F
(Oh, oh, oh, oh, oh, oh,  x2

Am          C       F
Oh, oh, oh, oh, oh, oh)   x2

Verse
                   C                    C/E           F
I've been roaming around, I was looking down at all I see
        C              C/E            F
Painted faces fill the places I can't reach
                      Am        C    F
You know that I could use somebody
                      Am        C    F
You know that I could use somebody

w/verse
Someone like you and all you know and how you speak
Countless lovers under cover of the street
You know that I could use somebody
You know that I could use somebody
             w/intro
Someone like you

Verse
NC
Off in the night while you live it up I'm off to sleep
Waging wars to shake the poet and the beat
I hope it's gonna make you notice
I hope it's gonna make you notice
                 w/intro
Someone like me (Oh, oh, oh, oh, oh, oh) 
Someone like me (Oh, oh, oh, oh, oh, oh) 
someone like me, somebody (Oh, oh, oh, oh, oh, oh)
(Oh, oh, oh, oh, oh, oh)

Bridge
D                      F#m
   (I'm ready now, I'm ready now
                   D
I'm ready now, I'm ready now
                   F#m
I'm ready now, I'm ready now
    B
I'm ready now)

Solo
  C                 C/E                      F
|-----------------|------------------------|-----------------|-------------|
|---------8-8-8-8-|------------------------|-----------------|-------------|
|-9-9-9-9---------|----------10-10-10-10-9-|-9-----x-x-11br--|---7---------|
|-----------------|-10-10-10---------------|-----------------|--------10---|
|-----------------|------------------------|-----------------|-------------|
|-----------------|------------------------|-----------------|-------------|
w/solo
 Am          C       F
(Oh, oh, oh, oh, oh, oh) Someone like you... somebody  x3

-----------------|--------------------|-------------|
---------8-8-8-8-|--------------------|-------------|
-9-9-9-9---------|--------------------|-------------|
-----------------|-7-7-7----7-10-7-9b-|-------------|
-----------------|-------10-----------|-------------|
-----------------|--------------------|-------------|
Am           C       F
(Oh, oh, oh, oh, oh, oh)

                   C                    C/E           F
I've been roaming around, I was looking down at all I see

http://www.sparkystabs.co.uk