Hush
Kula Shaker/Deep Purple
I know what you did last summer
Wizardgold@aol.com

----------------------------------------------------------------
This tab taken from:
http://tablature.home.ml.org
----------------------------------------------------------------


Intro
e:8--8--8--8--8--8--8--8--8--|
B:8--8--8--8--8--8--8--8--10-|
G:9--9--9--9--9--9--9--9--10-|
D:10-10-10-10-10-10-10-10-10-|
A:10-10-10-10-10-10-10-10-8--|
E:8--8--8--8--8--8--8--8--8--|


Little Bridge in intro
e:11-11-11-11-11-8--8--8--8--8--8--|
B:11-11-11-11-11-8--8--8--8--8--8--|
G:11-11-11-11-11-9--9--9--9--9--9--|
D:---------------10-10-10-10-10-10-|
A:---------------10-10-10-10-10-10-|
E:---------------8--8--8--8--8--8--|


Na-ne-na-na ne-na na-na-na                      
e:--------------------|
B:--------------------|
G:-------8-8-8-----10-|
D:-6-6-6-8-8-8-8-8-10-|
A:-6-6-6-6-6-6-8-8-8--|
E:-4-4-4-------6-6----|


Hush Hush....
  PM--|     PM--|     PM---------------|
e:---------------------------------------|
B:-------8---------8---------------------|
G:-------8---------8--10-10-10-----------|
D:10-10-----10-10-----10-10-10-8-8-8-8-9-|
A:10-10-----10-10-----8--8--8--8-8-8-8-9-|
E:8--8------8--8---------------6-6-6-6-7-|



Early in the morning...
With Wah                       
e:---------|
B:----4----|
G:----3----|
D:----2----|
A:----3----|
E:---------|