Linkin Park-One Step Closer

Tuning: Db Ab Db Gb Bb Eb (low to high)

*=harmonic

Intro: (palm mute on first note only)
--------------------------------
--------------------------------
--------------------------------
--------------------------------
--------------7-----------------
-0---5*---7*-----8---7*--0---3--
p.m. Main Riff: 4x

--------------------------------
--------------------------------
-------9--------5---------------
-0-0-x-x--8-7-0-x---------------
-0-0-x-7--8-7-0-3---------------
-0-0-x----8-7-0-----------------

 Verse: 8x (play softer than above)
--------------------------------
--------------------------------
-------9--------5---------------
-0-0-x-x--8-7-0-x---------------
-0-0-x-7--8-7-0-3---------------
-0-0-x----8-7-0-----------------

 Prechorus:               Play last time on 2nd Prechorus
------------------------------------|-x-x--
------------------------------------|-x-x--
------------------------------------|-x-x--
-5-5-x-x--x--5-5-x-x--x--5-5-x-x--x-|------
-5-5-x-x--x--5-5-x-x--x--5-5-x-x--x-|------
-5-5-x-x--x--5-5-x-x--x--5-5-x-x--x-|------

 chorus:
--------------------------------------------
--------------------------------------------
--------------------------------------------
-0-0-12-12-10-10-7-7-10-10-5-5-7-7-3-3------
-0-0-12-12-10-10-7-7-8--8--5-5-7-7-1-1------
-0-0-12-12-10-10-7-7-8--8--5-5-7-7-1-1------

 Bridge: (shut up when i'm talkin' to you)
     Shut Up!                   Shut Up When I'm Takin To you!
----------------------------|---------------------------------
----------------------------|---------------------------------
----------------------------|---------------------------------
-1--0-x-x--x--0-3-1-0-6-0-3-|-1--0-x-x--x--0-3-1-0-1--1-1--0--
-1--0-x-x--x--0-3-1-0-6-0-3-|-1--0-x-x--x--0-3-1-0-1--1-1--0--
-1--0-x-x--x--0-3-1-0-6-0-3-|-1--0-x-x--x--0-3-1-0-1--1-1--0--
                                                     | P.M. |

outro: (same as chrous)                   Last time:
----------------------------------------|----------------------
----------------------------------------|----------------------
----------------------------------------|----------------------
-0-0-12-12-10-10-7-7-10-10-5-5-7-7-3-3--|-3-3-3-3-3-3-3-3------
-0-0-12-12-10-10-7-7-8--8--5-5-7-7-1-1--|-1-1-1-1-1-1-1-1------
-0-0-12-12-10-10-7-7-8--8--5-5-7-7-3-3--|-1-1-1-1-1-1-1-1------