Lit-My Own Worst Enemy

Intro: (Guitar 1)
e--------------|-------------|--------------|---------|
B--------------|-------------|--------------|---------|
G-8\9--9--9--9-|--9--9--9--9-|-8\9--9--9--9-|---------|
D--------------|-------------|--------------|-9----7--|
A-6\7--7--7--7-|--7--7--7--7-|-6\7--7--7--7-|-9----7--|
E--------------|-------------|--------------|-7----5--|

Intro: (Guitar 2) Enter third time
e--------------|-------------|--------------|---------|
B--------------|-------------|--------------|---------|
G--------------|-------------|--------------|---------|
D-2--2--x------|-2--2--x-----|-2--2--x------|-9----7--|
A-2--2--x------|-2--2--x-----|-2--2--x------|-9----7--|
E-0--0--x------|-0--0--x-----|-0--0--x------|-7----5--|

Verse - Play Guitar 2 intro 4 times

Chorus (Guitar 2) Figure Out Rhythm On Your Own 
   E                       F#                      A               
Chorus (Guitar 1)
e-------------------------|-----------------------|---------------------
B-------------------------|-----------------------|---------------------
G--9--9--9--9--9--9--9--9-|9--9--9--9--9--9--9--9-|9--9--9--9--9--9--9--
D-------------------------|-----------------------|---------------------
A--7--7--7--7--7--7--7--7-|7--7--7--7--7--7--7--7-|7--7--7--7--7--7--7--
E-------------------------|-----------------------|---------------------
         B    
e-------|------------------------|
B-------|------------------------|
G--9--9\|11-11\-13-13-13\-14-14//|
D-------|------------------------|
A--7--7-|-9--9--11-11-11--12-12--|
E-------|------------------------|

Solo: (Guitar 1) (Guitar 2 Chords Above)
  E                                   B  A          E
e-----------|-----------|-----------|-------------|-------------|-------
B-----------|-----------|-----------|-------------|-------------|-------
G.8\9--9--9-|-8\9--9--9-|-8\9--9--9-|-11-11------.|-13-13-13-13-|-------
D.----------|-----------|-----------|------------.|-------------|-------
A-6\7--7--7-|-6\7--7--7-|-6\7--7--7-|-9--9--------|-11-11-11-11-|-------
E-----------|-----------|-----------|-------------|-------------|-------
                              B  A          E
e-------------|-------------|-------------|-------------------------|---
B-------------|-------------|-------------|-------------------------|---
G-13-13-13-13-|-13-13-13-13-|-14-14-------|-14-14/16-16/18-18\16-16-|---
D-------------|-------------|-------------|-------------------------|---
A-11-11-11-11-|-11-11-11-11-|-12-12-------|-12-12/14-14/16-16\14-14-|---
E-------------|-------------|-------------|-------------------------|---

                                         Fill Before Chorus (Guitar 1)
e-------------------------------|--------------------------------
B-------------------------------|-H----H----H----H---------------
G-14-14\13-13/14-14\13-13\11-11-|-9----9----9----9---------------
D-------------------------------|--------------------------------
A-12-12\11-11/12-12\11-11\-9--9-|--------------------------------
E-------------------------------|--------------------------------