Manic street Preachers-Another Invented Disease 

This track uses dropped D tuning on two guitars and the bass

Chords

    F    Eb   Bb   G5   F5

e   8    6    1
B   10   8    3
G   10   8    3
D   10   8    3    5    3
A   8    6    1    5    3
D                  5    3

Intro

Riff A
         N.C.
G------|----------------------------------------|---------------|
D------|--------------3-0-----------------------|-3-1-3--1-1-/3-| Repeat
A------|------------------3-po-0-ho-5-po-3-po-0-|-3-1-3--1-1-/3-|   x4
D--12\-|-0-ho-1-ho-2----------------------------|-3-1-3--1-1-/3-|


Verse
  The verse plays riff A heavily muted

 |Riff A | x4


Pre-Chorus
   This section uses two guitars together, No. 1 plays the chords while
No. 2 plays single notes

Guitar 1  
    F5           G5                   Eb5
G-|------------|------------|--------|-------|-------|
D-|-3---1---3--|--5---3---5-|-Repeat-|-1-----|-1-----|
A-|-3---1---3--|--5---3---5-|---x2---|-1-----|-1-----|
D-|-3---1---3--|--5---3---5-|--------|-1-----|-1-----|

Guitar 2
    F5                                G5
D-|---------------------------------|---------------------------------|
A-|---------------------------------|---------------------------------|x2
D-|-3-3-3-3-3-3-3-3-3-3-3-3-3-3-3-3-|-5-5-5-5-5-5-5-5-5-5-5-5-5-5-5-5-|

    Eb5
D-|---------------------------------|
A-|---------------------------------|x2
D-|-1-1-1-1-1-1-1-1-1-1-1-1-1-1-1-1-|


Chorus  
 F                   Eb
 We need and we will always need
 Bb      G5       F5
 Another invented disease

Riff A x2

Verse 2: Repeat Verse 1

Pre-Chorus: Repeat Pre-Chorus

Chorus: Repeat Chorus

Mid-Section
   The Mid-Section uses two guitars with a chorus and a long delay, the
other using a heavy distortion. All riffs and fills for the Mid-Section
are listed first then the arrangement afterwards

Fill  1           Guitar 1
    N.C.
G-|-----------------------------------------|
D-|-------------10-po-7---------------------| Repeat
A-|---------------------12-po-10-10-po-8----|   x2
D-|-5-7-/8-/10---------------------------12-|

Riff B            Guitar 2
D-|---------------------------|
A-|---------------------------| Repeat
D-|-0-2-3-5-/7-po-5-po-3-po-2-|   x2

Next the vocals re-enter

  |Fill 1  | x2

  |Riff B  | x2

Fill 2            Guitar 1
  Fill 1 is played underneath Fill 2

e-|------------------------------------------------------|
B-|-9-bu-(10)-9-bu-(10)-9-bu-(10)-8-po-6---6--8-po-6---6-| Repeat
G-|--------------------------------------7-----------7---|   x2
D-|------------------------------------------------------|


|Riff B  | x2

Fill 3            Guitar 1
e-|-----------8-po-5------------------|
B-|------------------10-po-8-8-po-6---| Repeat
G-|--------5------------------------7-|   x2
D-|-5-7-/8----------------------------|


Fill  4           Guitar 1
  Riff B is played underneath Fill 4
e-|-15-bu-(17)-15-bu-(17)-15-bu-(17)-15-po-13----13-15-po-13----13-|
B-|-------------------------------------------15-------------15----| Repeat
G-|----------------------------------------------------------------|   x2


Fill 5            Guitar 1

    G5  F5  G5           G5   F5   G5      Eb          
e-|-------------8-bu-(10)-rb--------------|-----------|--------|
B-|--------------------------10-8----8----|-8-bu-rb-6-|--{--}--|
G-|----------7--------------------10---10-|-----------|--{--}--|
D-|-7-9-/10-------------------------------|-----------|--------|


Chorus: Repeat Chorus twice