Manic Street Preachers - Australia

E		022100
Esus4		022200
Eadd#11	022300
Aadd9		577800
Badd11	799800
A5		x022xx
C#m		x46654
C		x3555x
D		x5777x
B		x2444x
Am		x02210

Intro
E   Esus4   Eadd#11

 [C]
------------------------|
------------------------|
--5----5--5--5--4--2----|     x2
------------------------|
--3----3--3--3--2--0----|
------------------------|

  *play from here for chorus
 [E]
----------------------------------|---------------------------------|
----------------------------------|---------------------------------|
--13----13--13-13-13--14--16--14--|-----13--13--11--11--9--9--13-13-|
----------------------------------|---------------------------------|
--11----11--11-11-11--12--14--12--|-----11--11---9---9--7--7--11-11-|
----------------------------------|---------------------------------|

----------------------------------|------------------------------|
----------------------------------|------------------------------|
--13----13--13-13-13--14--16--14--|-----13--13--11--11--9--9--9--|
----------------------------------|------------------------------|
--11----11--11-11-11--12--14--12--|-----11--11---9---9--7--7--7--|
----------------------------------|------------------------------|

  Aadd9                            Badd11
|----0----------|--0-------------|----0----------|--0-------------|
|------0--------|----0-----------|------0--------|----0-----------|
|--------6------|------6---------|--------8------|------8---------|
|-7--------7-7--|--------7-7-----|-9--------9-9--|--------9-9-----|
|-7----------7--|----------7-----|-9----------9--|----------9-----|
|-5----------5--|----------5-----|-7----------7--|----------7-----|

  A5
|---------------------|------------------|
|---------------------|------------------|
|-2--2---2--2---2--2--|---2--2---2---2---|
|-2--2---2--2---2--2--|---2--2---2---2---|
|-0--0---0--0---0--0--|---0--0---0---0---|
|---------------------|------------------|

Verse
C#m                 C      D                          
I don't know if I'm tired
    C#m                 C
And I don't know if I'm ill
                      B
My cheeks are turning yellow
                          A5
I think I'll take another pill

w/verse
Praying for the wave to come now
It must be for the fifteenth time
I've been here for much too long
This is the past that's mine

Chorus w/intro*
I want to fly and run till it hurts
Sleep for a while and speak no words in Australia
I want to fly and run till it hurts
Sleep for a while and speak no words in Australia
In Australia

Solo
C#m
---------------------------------|--------------------------------|
---------------------------------|--------------------------------|
-----------------------9h11------|---------9--11--11b----9-11--9--|
--------------------9--------11--|--L--11-------------------------|
--------7--x--9h11---------------|--------------------------------|
-7h9-----------------------------|--------------------------------|
 
C                                                       D
----------------------------------|-------------------------------|
------------13--15--15b---13------|-------------------------------|
--------12--------------------12--|---12--11h-12p11---------------|
-12h14----------------------------|-----------------14--12--12----|
----------------------------------|-------------------------------|
----------------------------------|-------------------------------|

w/verse
Praying for the wave to come now
It must be for the very last time
It's twelve o'clock till midnight
There must be someone to blame

Chorus
I want to fly and run till it hurts
Sleep for a while and speak no words in Australia
I want to fly and run till it hurts
Sleep for a while and speak no words in Australia
In Australia

Interlude
  E               Esus4
|--------------|---------------|
|-9------------|-10------------|
|-9------------|--9------------|
|-9------------|--9------------|
|--------------|---------------|
|--------------|---------------|
                                                             x4
  Eadd#11         [C]
|---------------|-----------------------------------|
|-11------------|-13-13-13-13-13-13-13-13-13-12-10--|
|--9------------|-----------------------------------|
|--9------------|-10-10-10-10-10-10-10-10-10--9--7--|
|---------------|-----------------------------------|
|---------------|-----------------------------------|

Chorus
Australia, in Australia

Chorus
I want to fly and run till it hurts
Sleep for a while and speak no words in Australia
   Am
In Australia
In Australia
   A5
In Australia

http://www.sparkystabs.co.uk