Manic Street Preachers-Crucifix Kiss 

Intro
  This riff is played over the spoken intro

e-|-----7-----------|--------|-----------14---------------|
B-|-5-5---8---------|-Repeat-|-<12>-<12>----15------------|
G-|---------9--5-/7-|---x2---|------------------14-12-/14-|
D-|---------9--5-/7-|--------|---------------------12-/14-|
A-|-----------------|--------|----------------------------|
E-|-----------------|--------|----------------------------|

|C5    |       |D5     |        |Bb5    |       |C5  Bb5  |

Verse
 C5
 Christin me fuhrer nazarine
 D5
 Believe in tommorow but not today
 Bb                  C5      Bb5
 Give me all your possesions

P.M.
  Make poverty your perfect home    Allow your leaders to control...
    C5                                D5
D-|---------------------------------|---------------------------------|
A-|-3-3-3-3-3-3-3-3-3-3-3-3-3-3-3-3-|-5-5-5-5-5-5-5-5-5-5-5-5-5-5-5-5-|
E-|---------------------------------|---------------------------------|

 ...you            Questions are now blasphemy
    Bb5                               C5        Bb5
D-|---------------------------------|-5---------3----------|
A-|-1-1-1-1-1-1-1-1-1-1-1-1-1-1-1-1-|-3---------1----------|
E-|---------------------------------|----------------------|

Pre-Chorus
 N.C.
 Why walk when you can crawl

 Stay on your knees and kiss my feet

 Censorship'll stop your excess thought
                     D5     A5     G5      F5
 Check your bilboard for my tour

Chorus
 E5             F5
 Listen to Luke sermon six
 G5                      F5
 And if one of those occupation troops
 A5            F5
 Forces you to carry his pack
 G5                 F5
 One kilometre then carry two 

Mid-Section
|C5     |        |D5     |        |Bb5     |        |C5  Bb5 |

Repeat Verse 1

Pre-Chorus 2
 N.C.
 Fall in love, fall in love with me

 Nail a crucifix onto your soul

 Fall in love, fall in love with me

 Nail a crucifix onto your soul

 G5                    F5
 Fall in love, fall in love with me
        E5         D5 
 Nail a crucifix onto your soul
 G5                    F5
 Fall in love, fall in love with me
        E5         D5      A5    G5    F5
 Nail a crucifix onto your soul

Solo: Repeat chords from Chorus

Outro
|G5     |F5     |C5      |F5      | x4     

|C5     |D5     |Bb5     |        |C5      |